Oops, an error
Loading. Please wait.

Your Creations Bass Tab

version 1
version 1

Whole song

Interactive

765 views 1 this week
no commentswrite comment
1 2 3 4 5
please rate
add to favorites
launch autoscroll
font size
0
reset
guitar tuner
Autoscroll
slow
fast
+/-
esc
set tempo
stop
Help us to improve Ultimate-Guitar.com Take our survey!
×
Author
Difficulty
Tuning
advanced
A E A D F# B
++++++++++++++++++++++++++++++++
|Suicide Silence-Your Creations|
++++++++++++++++++++++++++++++++

Length: 3:59

Tuning: Drop A (AEAD)

Tab Legend:
| x=rest
| ~=let ring
| /=slide up
| \=slide down
| h=hammer on
| p=pull off
----------------


                   Do the slide when the guitars do their pickslide
D|-------------------------------------------------------------------|
A|-------------------------------------------------------------------|
E|-----------------------44------44------44----44------44------44----|
A|-1~---4-3-1-3-0x--12\-----1111----1111----11----1111----1111----11-|

|---------------------------------------------|
|---------------------------------------------|
|-55------55------55----55------55------55----|
|----1111----1111----11----1111----1111----11-|

|---------------------------------------------|
|---------------------------------------------|
|-44------44------44----44------44------44----|
|----1111----1111----11----1111----1111----11-|

|---------------------------------------------|
|---------------------------------------------|
|-55------55------55----55------55------55----|
|----1111----1111----11----1111----1111----11-|

|------------------------------|
|------------------------------|
|------------------------------|
|-1~---4-3-1-3-0x----4-2--2-1x-|

|---------------------------------------------------------------|
|---------------------------------------------------------------|
|---------------------------------------------------------------|
|-2-111-2222-1-2222-1--2-111-2222-1-2222-1--2-111-2222-1-2222-1-|

---------------|
-------------1-|
-----------2---|
-2-111-3-5-----|

|---------------------------------------------------------------|
|---------------------------------------------------------------|
|---------------------------------------------------------------|
|-2-111-2222-1-2222-1--2-111-2222-1-2222-1--2-111-2222-1-2222-1-|

---------------|
-------------1-|
-----------2---|
-2-111-3-5-----|


|---------------------------------------------------------------|
|---------------------------------------------------------------|
|---------------------------------------------------------------|
|-2-111-2222-1-2222-1--2-111-2222-1-2222-1--2-111-2222-1-2222-1-|

---------------|
-------------1-|
-----------2---|
-2-111-3-5-----|

|---------------------------------------------------------------|
|---------------------------------------------------------------|
|---------------------------------------------------------------|
|-2-111-2222-1-2222-1--2-111-2222-1-2222-1--2-111-2222-1-2222-1-|

---------------|
-------------1-|
-----------2---|
-2-111-3-5-----|

Bass Solo 1

|-------------------------------------------------------------------------|
|-------------------------------------------------------------------------|
|-------------------------------------------------------------------------|
|-2-111-2222-1-2222-1--2-111-2222-1-2222-1--2-111-2222-1-2222-1-2-111-12\-|

|---------------------------------------------|
|---------------------------------------------|
|-44------44------44----44------44------44----|
|----1111----1111----11----1111----1111----11-|

|---------------------------------------------|
|---------------------------------------------|
|-55------55------55----55------55------55----|
|----1111----1111----11----1111----1111----11-|

|---------------------------------------------|
|---------------------------------------------|
|-44------44------44----44------44------44----|
|----1111----1111----11----1111----1111----11-|

|---------------------------------------------|
|---------------------------------------------|
|-55------55------55----55------55------55----|
|----1111----1111----11----1111----1111----11-|

|---------------------------------------------------------------|
|---------------------------------------------------------------|
|---------------------------------------------------------------|
|-2-111-2222-1-2222-1--2-111-2222-1-2222-1--2-111-2222-1-2222-1-|

---------------|
-------------1-|
-----------2---|
-2-111-3-5-----|

|---------------------------------------------------------------|
|---------------------------------------------------------------|
|---------------------------------------------------------------|
|-2-111-2222-1-2222-1--2-111-2222-1-2222-1--2-111-2222-1-2222-1-|

---------------|
-------------1-|
-----------2---|
-2-111-3-5-----|

|----------------------------------------------------------|
|----------------------------------------------------------|
|----------------------------------------------------------|
|-1~---4-3-1-3-0x----4-2--2-1x---15\--2-111-2222-1-2222-1--|

---------------------------------------------------------------|
---------------------------------------------------------------|
---------------------------------------------------------------|
-2-111-2222-1-2222-1--2-111-2222-1-2222-1--2-111-2222-1-2222-1-|

|---------------------------------|
|---------------------------------|
|---------------------------------|
|-3-1~---3-1~---0-3-1~---0-3-1~---|

|---------------------------------------------------------------|
|---------------------------------------------------------------|
|---------------------------------------------------------------|
|-2-111-2222-1-2222-1--2-111-2222-1-2222-1--2-111-2222-1-2222-1-|

---------------------|
---------------------|
---------------------|
-2-111-2222-1-2222-1-|

|-----------------------------------------------------------------|
|-----------------------------------------------------------------|
|-----------------------------------------------------------------|
|-3-1~---3-1~---0-3-1~---0-3-1~---1-0~---1-0~---1-3-0~---1-3-0~---|

|---------------------------------|
|---------------------------------|
|---------------------------------|
|-3-1~---3-1~---0-3-1~---0-3-1~---|

                  Do the slide at the pickslide again
|--------------------------------------------------------------------|
|--------------------------------------------------------------------|
|-----------------------44-------44------44----44------44------44----|
|-1~---4-3-1-3-0x--12\------1111----1111----11----1111----1111----11-|

|---------------------------------------------|
|---------------------------------------------|
|-55------55------55----55------55------55----|
|----1111----1111----11----1111----1111----11-|

|---------------------------------------------|
|---------------------------------------------|
|-44------44------44----44------44------44----|
|----1111----1111----11----1111----1111----11-|

|---------------------------------------------|
|---------------------------------------------|
|-55------55------55----55------55------55----|
|----1111----1111----11----1111----1111----11-|

Bass Solo 2
|--------------------------------------------------------------------------|
|--------------------------------------------------------------------------|
|--------------------------------------------------------------------------|
|-2-111-2222-1-2222-1--2-111-2222-1-2222-1--2-111-2222-1-2222-1-2-111-/12\-|

|---------------------------------------------|
|-------------------------------------------1-|
|-----------------------------------------2---|
|-2-111x----2-111x----2-111x----2-111-3-5-----|

|---------------------------------------------------------------|
|---------------------------------------------------------------|
|---------------------------------------------------------------|
|-2-111-2222-1-2222-1--2-111-2222-1-2222-1--2-111-2222-1-2222-1-|

---------------|
-------------1-|
-----------2---|
-2-111-3-5-----|

|-------------------------------------------------------------------------|
|-------------------------------------------------------------------------|
|-------------------------------------------------------------------------|
|-111x----111x----111x----111x----111x----111x----111x----111x----111x----|

-----------------------------------------|
-----------------------------------------|
-----1-2-3-----1-2-3-----1-2-3-----1-2-3-|
-111-------111-------111-------111-------|

|------------------------------|
|------------------------------|
|------------------------------|
|-1~---4-3-1-3-0x----4-2--2-1x-|

Lyrics:

So wake from ignorance and take up sheild,
for your creations,for your creations,
so wake form ignorance and take up sheild,
for your creations,for you creations,

Protect your blood,

A sick sad, addiction to the ones who hold such innocence,
and to the heart that beats with my blood,
I am you sheild,for your creations,

So pick up and bare your arms
fathers prepare your shields,fathers prepare your shields,
Slaughter them sick,
Sick men of malice intent who feed off our young,
your peers to prey,your peers to prey,

So crush the convicted,Predators to prey,

So wake from ignorance and take up shield
for your creations, for you creations,
Slaughter them sick,your peers to prey,

SLAUGHTER THEM,

And to the one that bleeds with my blood,I am your shield,
And to the heart that beats with my blood,I am your shield.

_____________________________________________________________

That's it...please comment and rate...corrections are welcome

+++++++
|Enjoy|
+++++++
Suggest correction
What's this?
You can suggest a correction to this tab. Community and Mods will review your correction and vote to approve or reject it.
comments
We did not receive enough feedback on this tab! Please rate:
print report bad tab
1 2 3 4 5
guest
You may want to rate the tab now too:
select rating
Please do not post tabs as comments. Select "correction" instead!