Oops, an error
Loading. Please wait.

Al Final Tab

134 views 3 this week
no commentswrite comment
1 2 3 4 5
3 more votes to show rating
add to favorites
launch autoscroll
font size
0
reset
how to read this tab
guitar tuner
×
Best way to learn
"Al Final"
Autoscroll
slow
fast
+/-
esc
set tempo
stop
Hola, Cualquier duda o comentario de la cancion me 
escriben esta es una cancion de las mejores canciones 
que se hayan escuchado del tock tico, y aqui les va!!!...

Estas son las notas base de la cancion: D, G, D/F#, Am.

|* = esto significa apagar las cuerdas o golpearlas.
  
Riff 1

E|--0-2-3----3-3-|*-----0--|*----0--|*-------
B|--3--------3-3-|*--3--3--|*--1-1--|*-------
G|--2--------0-0-|*--2--2--|*--2-2--|*-------
D|--0------------|*--------|*-------|*-------
A|---------------|*--------|*--0----|*-------
E|-----------3---|*--2-----|*-------|*-------

Riff 2

E|--0-2-3----3-3-|*-----0--|*----3/5-|*------
B|--3--------3-3-|*--3--3--|*--1-----|*------
G|--2--------0-0-|*--2--2--|*--2-----|*------
D|--0------------|*--------|*--------|*------
A|---------------|*--------|*--0-----|*------
E|-----------3---|*--2-----|*--------|*------

Riff 3

E|--------------------|*-----0--|*------0-|*-
B|----3/5/3-------3-3-|*--3--3--|*--1---1-|*-
G|--0-------4-----0-0-|*--2--2--|*--2---2-|*-
D|--------------------|*--------|*--------|*-
A|--------------------|*--------|*--0-----|*-
E|----------------3---|*--2-----|*--------|*-

Riff 4

E|--0-2-3---7-7--|*---5--5-|*--3--3-|*-------
B|--3-------0-0--|*--------|*-------|*-------
G|--2------------|*---0--0-|*--0--0-|*-------
D|--0------------|*--------|*-------|*-------
A|----------7-7--|*---5--5-|*--3--3-|*-------
E|---------------|*--------|*-------|*-------


Intro:

Riff 1           De esta parte no me acuerdo muy bien
Riff 2           pero es algo asi, asi que busquenlo 
Riff 1           con la cancion, pero es algo parecido.
Riff 3


Verso 1:

Riff 1
Cada noche con vos
Riff 2
Cada historia una cancion
Riff 1
Cada lagrima he de olvidar
Riff 3
Cada estraña sensacion

Riff 4
Cada uno tiene su version 
Riff 4(aqui se rasguea en la ultima posicion antes del coro)
Cada uno habla 


Coro 1: 

D  G  D/F#                  Am    
Al final la ciudad queda dormida
D   G D/F#               Am  
Y el sol no tardara en llegar
D  G  D/F#                  Am    
Y al final la noche queda vacia
D  G  D/F#                  Am    
Y tal vez te vuelva a encontrar


El verso 2 y el coro 2, van iguales... y termina asi:


D  G  D/F#           Am    
Al final me quedo dormida
D  G  D/F#               Am      D, G, D/F#, Am.
y tal vez te vuelva a encontrar.
(o tambien se puede terminar, bajando el volumen 
en los riff´s, en el orden de la intro!)


Guiense con la cancion para los tiempos y arreglos que tiene..
Bueno gente, ahi esta, ojala les cuadre, ahi me escriben 
por cualquie cosa. Esta cancion la transcribo para todos 
aquellos a los que les gusta, me l aenseño un amigo y ahi
esta para que la toquen. 

Cuidense mucho, y LARGA VIDA AL ROCK NACIONAL!!!.
Suggest correction
Give kudos to tab author, rate the tab!
1 2 3 4 5
comments
print report bad tab
guest
You may want to rate the tab now too:
select rating
Wanna post a correction for this tab? Suggest correction