Oops, an error
Loading. Please wait.

Tu Luz Tab

11 views 1 this week
no commentswrite comment
1 2 3 4 5
3 more votes to show rating
add to favorites
launch autoscroll
font size
0
reset
how to read this tab
guitar tuner
Autoscroll
slow
fast
+/-
esc
set tempo
stop
Help us to improve Ultimate-Guitar.com Take our survey!
×
La canción es muy facil pero es preciosa,
utiliza solo tres acordes C,G,F.
Unicamente que tiene un arpegio especial
y además el punteo la embellece aún más.
El punteo no lo pongo porque cada uno lo toca como 
quiere el F se puede tocar en el VIII traste y suena
mejor. 
Ojala y les guste

*****************************************

Riff 1
Vuela tu luz, vagando en la oscuridad
Riff 1
siguo tu luz en el azul de tu temblar
F
cerca tan cerca atrapas,
                         Riff 2
cristales de aire mojaran, explotaran, se esconderan
entre las sombras brillaran

PUNTEO

Riff 1
con el temor de perder tu libertad
nadie sabrá del brillo que esconde tu piel
F
destellos de almas que embriagan tu fe
                        Riff 2
cristales de aire mojaran, explotaran, se esconderan
entre las luces arderan

y ahora estás a un paso de la claridad
vuela tu luz al filo de la inmensidad

Vagando en la oscuridad del brillo que esconde tu piel
entre las sombras brillaran, entre las luces arderan
en el azul de tu temblar del brillo que esconde tu piel
entre las luces arderan vagando en la oscuridad

LA,LA,LA...
oh,oh,oh...


Riff 1 
 C                    G                        F------------x2---------- 
e--------------0--------|--------------3--------|---------------0--------|
B--------1---1---1---1--|--------3---3---3---3--|---------1---1---1---1--|
G------0---0-------0----|------0---0-------0----|-------0---0-------0----|
D-----------------------|-----------------------|------------------------|
A---3-------------------|---2-------------------|------------------------|
E-----------------------|-----------------------|---1--------------------|

Riff 2
e-----------|---------------|----------3--|
B--------1--|--------3------|--------1----|
G------0----|------0---0----|------2------|
D-----------|------------0--|-------------|
A---3-------|---2-----------|---3---------|
E-----------|---------------|---1---------|
***************************************************************
VIVA EL ROCK TICO!
Dios los bendiga
Suggest correction
Give kudos to tab author, rate the tab!
1 2 3 4 5
comments
print report bad tab
guest
You may want to rate the tab now too:
select rating
Wanna post a correction for this tab? Suggest correction