Oops, an error
Loading. Please wait.

Traicionera Tab

50 views 1 this week
no commentswrite comment
1 2 3 4 5
3 more votes to show rating
add to favorites
launch autoscroll
font size
0
reset
how to read this tab
guitar tuner
×
Best way to learn
"Traicionera"
Autoscroll
slow
fast
+/-
esc
set tempo
stop
si necesitan pedidos contacten a cristopher_d_96@
La introducción es con trompeta pero lo transcribi para guitarra.

          A#                        Cm
E|--*--||-----||-----|    E|--*--||-----||-----|
B|--*--||-----||-----|    B|--*--||-----||-----|
G|--*--||--*--||-----|    G|--*--||-----||-----|
D|--*--||-----||--*--|    D|--*--||-----||--*--|
A|--*--||-----||--*--|    A|--*--||-----||--*--|
E|--*--||-----||-----|    E|--*--||-----||-----|
    6      7      8           8      9      10


                           A#                        Cm
E|----8-8-8-8-8-8-8-8-------------------------------------------|
B|--6-----------------8---6-6-----------6-6-6-6-9-6-7-7---------|
G|----------------------8-----7-7-7-7-7-------------------------|
D|--------------------------------------------------------------|
A|--------------------------------------------------------------|
E|--------------------------------------------------------------|

                                     A#
E|----11-11-11-11-11-11-11-11-11-11-10-10----------------10-10--|
B|--9-------------------------------------11-11-11-11-11--------|
G|--------------------------------------------------------------|
D|--------------------------------------------------------------|
A|--------------------------------------------------------------|
E|--------------------------------------------------------------|

                Cm-Cm-Cm
E|--10-10-13-10-11-11-11----------------------------------------|
B|--------------------------------------------------------------|
G|--------------------------------------------------------------|
D|--------------------------------------------------------------|
A|--------------------------------------------------------------|
E|--------------------------------------------------------------|

                              A#
Cuando se quiere como yo te quize
                                    Cm
Trata de cerrar la herida que me abriste
                                A#
No he vuelto a amarte ni recordarte
                             Cm
Pero ya no puedo ahora olvidarte

Coro
                                A#
*Oye traicionera aunque yo me muera
                                     Cm
Donde yo me encuentre rogaré por tu alma* BIS

                           A#                        Cm
E|----8-8-8-8-8-8-8-8-------------------------------------------|
B|--6-----------------8---6-6-----------6-6-6-6-9-6-7-7---------|
G|----------------------8-----7-7-7-7-7-------------------------|
D|--------------------------------------------------------------|
A|--------------------------------------------------------------|
E|--------------------------------------------------------------|

                                     A#
E|----11-11-11-11-11-11-11-11-11-11-10-10----------------10-10--|
B|--9-------------------------------------11-11-11-11-11--------|
G|--------------------------------------------------------------|
D|--------------------------------------------------------------|
A|--------------------------------------------------------------|
E|--------------------------------------------------------------|

                Cm-Cm-Cm
E|--10-10-13-10-11-11-11----------------------------------------|
B|--------------------------------------------------------------|
G|--------------------------------------------------------------|
D|--------------------------------------------------------------|
A|--------------------------------------------------------------|
E|--------------------------------------------------------------|

                               A#
No he vuelto a amarte ni recordarte
                             Cm
Pero ya no puedo ahora olvidarte
                                 A#
Esa es la alegría que hay en mi vida
                                      Cm
Camino por las noches y no encuentro nada

Coro
                                A#
*Oye traicionera aunque yo me muera
                                     Cm
Donde yo me encuentre rogaré por tu alma* BIS

                           A#                        Cm
E|----8-8-8-8-8-8-8-8-------------------------------------------|
B|--6-----------------8---6-6-----------6-6-6-6-9-6-7-7---------|
G|----------------------8-----7-7-7-7-7-------------------------|
D|--------------------------------------------------------------|
A|--------------------------------------------------------------|
E|--------------------------------------------------------------|

                                     A#
E|----11-11-11-11-11-11-11-11-11-11-10-10----------------10-10--|
B|--9-------------------------------------11-11-11-11-11--------|
G|--------------------------------------------------------------|
D|--------------------------------------------------------------|
A|--------------------------------------------------------------|
E|--------------------------------------------------------------|

                Cm-Cm-Cm
E|--10-10-13-10-11-11-11----------------------------------------|
B|--------------------------------------------------------------|
G|--------------------------------------------------------------|
D|--------------------------------------------------------------|
A|--------------------------------------------------------------|
E|--------------------------------------------------------------|


¡Qué cumbia más linda está hijue....  ehhhhh!
Es que sino mamá se enoja

Coro
                                A#
*Oye traicionera aunque yo me muera
                                     Cm
Donde yo me encuentre rogaré por tu alma* BIS

                           A#                       Cm
E|----8-8-8-8-8-8-8-8-------------------------------------------|
B|--6-----------------8---6-6-----------6-6-6-6-9-6-7-7---------|
G|----------------------8-----7-7-7-7-7-------------------------|
D|--------------------------------------------------------------|
A|--------------------------------------------------------------|
E|--------------------------------------------------------------|

                                     A#
E|----11-11-11-11-11-11-11-11-11-11-10-10----------------10-10--|
B|--9-------------------------------------11-11-11-11-11--------|
G|--------------------------------------------------------------|
D|--------------------------------------------------------------|
A|--------------------------------------------------------------|
E|--------------------------------------------------------------|

                Cm-Cm-Cm
E|--10-10-13-10-11-11-11----------------------------------------|
B|--------------------------------------------------------------|
G|--------------------------------------------------------------|
D|--------------------------------------------------------------|
A|--------------------------------------------------------------|
E|--------------------------------------------------------------|

más rápido

                          A#                         Cm
E|----8-8-8-8-8-8-8-8-------------------------------------------|
B|--6-----------------8---6-6-----------6-6-6-6-9-6-7-7---------|
G|----------------------8-----7-7-7-7-7-------------------------|
D|--------------------------------------------------------------|
A|--------------------------------------------------------------|
E|--------------------------------------------------------------|

                                     A#
E|----11-11-11-11-11-11-11-11-11-11-10-10----------------10-10--|
B|--9-------------------------------------11-11-11-11-11--------|
G|--------------------------------------------------------------|
D|--------------------------------------------------------------|
A|--------------------------------------------------------------|
E|--------------------------------------------------------------|

                Cm-Cm-Cm
E|--10-10-13-10-11-11-11----------------------------------------|
B|--------------------------------------------------------------|
G|--------------------------------------------------------------|
D|--------------------------------------------------------------|
A|--------------------------------------------------------------|
E|--------------------------------------------------------------|
Suggest correction
Give kudos to tab author, rate the tab!
1 2 3 4 5
comments
print report bad tab
guest
You may want to rate the tab now too:
select rating
Wanna post a correction for this tab? Suggest correction