Oops, an error
Loading. Please wait.

Down Here We All Float bass

247 views 3 this week
no commentswrite comment
1 2 3 4 5
3 more votes to show rating
add to favorites
×
Save as Personal and add changes to this tab that will be seen only by you. Learn more ›
×
You can save this tab as Personal to edit and correct it or add notes. All changes will be seen only by you. Learn more »
launch autoscroll
font size
0
reset
guitar tuner
edit
Autoscroll
slow
fast
+/-
esc
set tempo
stop
Artist: Sullivan
Album: Hey, I'm a Ghost
Song: "Down Here, We All Float"
Tuning: Drop D,
[but can be played in standard;
just convert all D string notes
by subtracting two from each number note]

Bass Tab by Radnac - radnac@gmail.com

Legend:

/ = slide down
\ = slide up
~ = let note ring
x = mute
X = number of times to play each bar

[Note: if you want to sound closest to the song, play with a pick]

Intro: no bass until about 0:06 into the song where you play this

G|----------|
D|----------|
A|----------|
D|-7-7--7-7-|

(Now play this while guitar continues at 0:08)

G|--------------------------------------------------|
D|--------------------------------------------------|
A|--------------------------------------------------|	X2
D|/777777777777777777777777\333333333333--5555-3333-|

Then (0:24)

G|-----------------------------------|
D|-----------------------------------|
A|-----------------------------------|
D|2222--3333--5555-3333-2222-33-3/5/-|

Verse: intro fades out (0:31)

G|--------------------------------------------|
D|--------------------------------------------|    X6
A|--------------------------------------------|
D|7-7--7-7--7-7--7-7--3-3--3-3--5-5--5-5------|

Chorus (1:20)

G|------------------------------------------------------------|
D|------------------------------------------------------------|
A|------------------------------------------------------------|	X4
D|/777777777777777777777777\555555555555--0~0-0x0x0-0~0-0x0x0-|

Then (2:01)

G|----------------------|
D|----------------------|
A|----------------------|
D|-0~0-0x0x0-0~0-0x0x0--|

Verse: (chorus fades out, (2:04)

G|--------------------------------------------|
D|--------------------------------------------|    X2
A|--------------------------------------------|
D|-7-7--7-7--7-7--7-7--3-3--3-3--5-5--5-5-----|

Here comes a little variation...

(2:20)
G|-------|
D|-------|
A|-------|
D|5\\\\\\
[Slide up from D|5 slowly]

G|----------------------------------------------------------------|
D|----------------------------------------------------------------|
A|----------------------------------------------------------------|    X2
D|--777777777~--7777777777777777\\33333333~--5555555555555555-----|

Then (2:44)

G|-----------|
D|-----------|
A|-----------|
D|-7-7--7-7--|

Chorus (2:46)

G|------------------------------------------------------------|
D|------------------------------------------------------------|
A|------------------------------------------------------------|	X4
D|/777777777777777777777777\555555555555--0~0-0x0x0-0~0-0x0x0-|

Then (3:27)

G|----------------------|
D|----------------------|
A|----------------------|
D|-0~0-0x0x0-0~0-0x0x0--|

Bridge: (come in at 3:35 after vocal/drum solo)

G|---------------------------------------------------|
D|---------------------------------------------------|
A|---------------------------------------------------|
D|-777777777777777777777777\222222222222/555555555555	X4

Outro: "Let it go!..." (4:08)

G|------------------|
D|------------------|
A|------------------|
D|-0~0--0x0x0--0~0--|

Then (4:11)

G|------------|
D|------------|
A|------------|
D|0x0x0--0~0--| X6

Then (4:23)

G|-------|
D|-------|
A|-------|
D|-0x0x0x|END

            
            
Suggest correction
Creating personal tab
Creating personal tab
You can edit any tab online and save it as your Personal.

You can edit, replace or remove any tab part or add personal notes – all changes will be seen only by you.

Personal tabs can be accessed anytime from any device, even offline.
Learn more »
Give kudos to tab author, rate the tab!
1 2 3 4 5
comments
print report bad tab
guest
You may want to rate the tab now too:
select rating
Wanna post a correction for this tab? Suggest correction