Oops, an error
Loading. Please wait.

Different Kind Of Tears Tab

268 views 27 this week
no commentswrite comment
1 2 3 4 5
3 more votes to show rating
add to favorites
launch autoscroll
font size
0
reset
how to read this tab
guitar tuner
Autoscroll
slow
fast
+/-
esc
set tempo
stop
Help us to improve Ultimate-Guitar.com Take our survey!
×
Author
Difficulty
Tuning
novice
D# G# C# F# A# D#
Live version from iHeartRadio. Watch: https://www.youtube.com/watch?v=xJj83IJI2Rw

[Intro]

    D#       A#add11  G#add11  A#add11
D#|-0-0-0-0--0-0-0-0--0-0-0-0--0-0-0-0-|
A#|-0-0-0-0--0-0-0-0--0-0-0-0--0-0-0-0-|
F#|-1-1-1-1--8-8-8-8--6-6-6-6--8-8-8-8-|
C#|-2-2-2-2--9-9-9-9--7-7-7-7--9-9-9-9-| (x2)
G#|-2-2-2-2--9-9-9-9--7-7-7-7--9-9-9-9-|
D#|-0-0-0-0--0-0-0-0--0-0-0-0--0-0-0-0-|


[Verse 1]

    D#                A#5(11)
D#|-0-0-0-0--0-0-0-0--0-0-0-0--0-0-0-0-|
A#|-0-0-0-0--0-0-0-0--0-0-0-0--0-0-0-0-|
F#|-1-1-1-1--1-1-1-1--4-4-4-4--4-4-4-4-|
C#|-2-2-2-2--2-2-2-2--4-4-4-4--4-4-4-4-| (x2)
G#|-2-2-2-2--2-2-2-2--2-2-2-2--2-2-2-2-|
D#|-0-0-0-0--0-0-0-0-------------------|


[Chorus]

    D#       A#add11  G#add11  A#add11
D#|-0-0-0-0--0-0-0-0--0-0-0-0--0-0-0-0-|
A#|-0-0-0-0--0-0-0-0--0-0-0-0--0-0-0-0-|
F#|-1-1-1-1--8-8-8-8--6-6-6-6--8-8-8-8-|
C#|-2-2-2-2--9-9-9-9--7-7-7-7--9-9-9-9-| (x3)
G#|-2-2-2-2--9-9-9-9--7-7-7-7--9-9-9-9-|
D#|-0-0-0-0--0-0-0-0--0-0-0-0--0-0-0-0-|


[Verse 2]

    D#                A#5(11)
D#|-0-0-0-0--0-0-0-0--0-0-0-0--0-0-0-0-|
A#|-0-0-0-0--0-0-0-0--0-0-0-0--0-0-0-0-|
F#|-1-1-1-1--1-1-1-1--4-4-4-4--4-4-4-4-|
C#|-2-2-2-2--2-2-2-2--4-4-4-4--4-4-4-4-| (x2)
G#|-2-2-2-2--2-2-2-2--2-2-2-2--2-2-2-2-|
D#|-0-0-0-0--0-0-0-0-------------------|


[Chorus]

    D#       A#add11  G#add11  A#add11
D#|-0-0-0-0--0-0-0-0--0-0-0-0--0-0-0-0-|
A#|-0-0-0-0--0-0-0-0--0-0-0-0--0-0-0-0-|
F#|-1-1-1-1--8-8-8-8--6-6-6-6--8-8-8-8-|
C#|-2-2-2-2--9-9-9-9--7-7-7-7--9-9-9-9-| (x3)
G#|-2-2-2-2--9-9-9-9--7-7-7-7--9-9-9-9-|
D#|-0-0-0-0--0-0-0-0--0-0-0-0--0-0-0-0-|


[Bridge]

Note: Bridge is not 100% correct. There is random picking, i think.

    G#sus2                 D#
D#|-0--0------------0------0-0--0--------------0--------|
A#|-0----0------0-----0----0-0----0------0-------0------|
F#|-2------2------------2--1-1------1------1-------1----|
C#|-2---------2---2--------2-2---------2-----2-------2--|
G#|-0----------------------2-2--------------------------|
D#|------------------------0-0--------------------------|

    G#sus2             D#                G#sus2
D#|-0-0-----0-----0-0--0-0-0-0-0-0-0-0-|-0-0-0-0-0-0-0-0-|
A#|-0-0-0-----0---0-0--0-0-0-0-0-0-0-0-|-0-0-0-0-0-0-0-0-|
F#|-2-2---2-----2-2-2--1-1-1-1-1-1-1-1-|-2-2-2-2-2-2-2-2-|
C#|-2-2-----------2-2--2-2-2-2-2-2-2-2-|-2-2-2-2-2-2-2-2-|
G#|-0-0-----------0-0--2-2-2-2-2-2-2-2-|-0-0-0-0-0-0-0-0-|
D#|--------------------0-0-0-0-0-0-0-0-|-----------------|

    D#               G#sus2           A#5(11)
D#|-0-0-0-0-0-0-0-0--0-0-0-0-0-0-0-0--0-0-0-0-0-0-0-0-|
A#|-0-0-0-0-0-0-0-0--0-0-0-0-0-0-0-0--0-0-0-0-0-0-0-0-|
F#|-1-1-1-1-1-1-1-1--2-2-2-2-2-2-2-2--4-4-4-4-4-4-4-4-|
C#|-2-2-2-2-2-2-2-2--2-2-2-2-2-2-2-2--4-4-4-4-4-4-4-4-|
G#|-2-2-2-2-2-2-2-2--0-0-0-0-0-0-0-0--2-2-2-2-2-2-2-2-|
D#|-0-0-0-0-0-0-0-0-----------------------------------|

[Outro]

    D#       A#add11  G#add11  A#add11
D#|-0-0-0-0--0-0-0-0--0-0-0-0--0-0-0-0-|
A#|-0-0-0-0--0-0-0-0--0-0-0-0--0-0-0-0-|
F#|-1-1-1-1--8-8-8-8--6-6-6-6--8-8-8-8-|
C#|-2-2-2-2--9-9-9-9--7-7-7-7--9-9-9-9-| (until the end)
G#|-2-2-2-2--9-9-9-9--7-7-7-7--9-9-9-9-|
D#|-0-0-0-0--0-0-0-0--0-0-0-0--0-0-0-0-|

    D#      
D#|-0-|
A#|-0-|
F#|-1-|
C#|-2-|
G#|-2-|
D#|-0-|

Suggest correction
Give kudos to tab author, rate the tab!
1 2 3 4 5
comments
print report bad tab
guest
You may want to rate the tab now too:
select rating
Wanna post a correction for this tab? Suggest correction