Oops, an error
Loading. Please wait.

13 Voices Bass Tab

706 views 63 this week
no commentswrite comment
1 2 3 4 5
2 more votes to show rating
add to favorites
launch autoscroll
font size
0
reset
guitar tuner
Autoscroll
slow
fast
+/-
esc
set tempo
stop
Help us to improve Ultimate-Guitar.com Take our survey!
×
Author
Difficulty
Tabbed By:Josecar
Album:13 Voices
Band:Sum 41
Song:13 Voices
Date:2016
My YT Channel Of Bass Cover:https://www.youtube.com/channel/UCg9O-Rug1KEvY3jmKHY8R-Q
(Write me a coment if you want any bass tab)





[Intro]

No Bass



[Pre Verse]
G|---------------------------------------------------------------------------|
D|---------------------------------------------------------------------------|
A|---------------------------------------------------------------------------|X2
E|--0--7--10--12----7--10--10--12----0--2--3--3-3-3-3-3--3--7--7-7-7-7-7-----|

G|--------------------|
D|--------------------|
A|--------------------|
E|--0-0-0-0-0-0-0-0---|

[Verse]
G|---------------------------------------------------------------------------|
D|---------------------------------------------------------------------------|
A|--7-7-7-7-7-7-7-7--3-3-3-3-3-3-3-3-----------------------------------------|
E|------------------------------------3-3-3-3-3-3-3-3--7-7-7-7-7-7-7-7-------|

G|-------------------------------------------------------------------------------------|
D|-------------------------------------------------------------------------------------|
A|-------------------------------------------------------------------------------------|
E|--5-5-5-5-5-5-5-5--3-3-3-3-3-3-3-3--2-2-2-2-2-2-2-2--7-7-7-7-7-7-7-7-7-7-7-7-7-7-7-7-|

G|--------------------|
D|--------------------|
A|--7-----------------|
E|--------------------|

[Chorus]
G|---------------------------------------------------------------------------------|
D|---------------------------------------------------------------------------------|
A|--7-7--7-7--7-7--7-7--3-3--3-3--3-3--3-3-----------------------------------------|X2
E|------------------------------------------3-3--3-3--3-3--3-3--7-7--7-7--7-7--7-7-|

G|---------------------------------------------------------------------------|
D|---------------------------------------------------------------------------|
A|---------------------------------------------------------------------------|
E|--5-5-5-5-5-5-5-5-5-5-5-5-5-5-5-5--3-3-3-3-3-3-3-3-3-3-3-3-3-3-3-3---------|

G|---------------------------------------------------|
D|---------------------------------------------------|
A|-----------------7-6-------------------------------|
E|----0--2--3--5-7-----7--7--5-3-2-0-----------------|


[Verse 2]
G|---------------------------------------------------------------------------|
D|---------------------------------------------------------------------------|
A|--7-7-7-7-7-7-7-7--3-3-3-3-3-3-3-3-----------------------------------------|
E|------------------------------------3-3-3-3-3-3-3-3--7-7-7-7-7-7-7-7-------|

G|---------------------------------------------------------------------------|
D|---------------------------------------------------------------------------|
A|--7-7-7-7-7-7-7-7--3-3-3-3-3-3-3-3-----------------------------------------|
E|------------------------------------3-3-3-3-3-3-3-3--7-7-7-7-7-------------|

G|--------------------------|
D|--------------------------|
A|--------------------------|
E|--0-0--0--0--0--0--0--0-7-|


[Chorus]
G|--------------------------|
D|--------------------------|
A|--7-7--3-3----------------|X2
E|------------3-3--7-7--7-7-|

G|---------------------------------------------------------------------------|
D|---------------------------------------------------------------------------|
A|--7-7-7-7-7-7-7-7--3-3-3-3-3-3-3-3-----------------------------------------|
E|------------------------------------3-3-3-3-3-3-3-3--7-7-7-7-7-7-7-7-------|

G|---------------------------------------------------------------------------|
D|---------------------------------------------------------------------------|
A|---------------------------------------------------------------------------|
E|--5-5-5-5-5-5-5-5-5-5-5-5-5-5-5-5--3-3-3-3-3-3-3-3-3-3-3-3-3-3-3-3---------|

G|---------------------------------------------------|
D|---------------------------------------------------|
A|-----------------7-6-------------------------------|
E|----0--2--3--5-7-----7--7--5-3-2-0-----------------|

[Outro]
G|---------------------------------------------------------------------------|
D|---------------------------------------------------------------------------|
A|--7-7-7-7-7-7-7-7--3-3-3-3-3-3-3-3-----------------------------------------|X2
E|------------------------------------3-3-3-3-3-3-3-3--7-7-7-7-7-7-7-7-------|

G|---------------|
D|---------------|
A|--7--3---------|X2
E|--------3--7---|

[SOLO]
G|---------------------------------------------------------------------------|
D|---------------------------------------------------------------------------|
A|--7-7-7-7-7-7-7-7--3-3-3-3-3-3-3-3-----------------------------------------|
E|------------------------------------3-3-3-3-3-3-3-3--7-7-7-7-7-7-7-7-------|

G|----------------|
D|----------------|
A|--7--7--7--7--3-|
E|----------------|

[END]
G|---------------------------------------------------------------------------|
D|---------------------------------------------------------------------------|
A|--7-7-7-7-7-7-7-7--3-3-3-3-3-3-3-3-----------------------------------------|X2
E|------------------------------------3-3-3-3-3-3-3-3--7-7-7-7-7-7-7-7-------|

G|--------------------------|
D|--------------------------|
A|--------------------------|
E|--0-0--0--0--0--0--0--0-7-|




************************************

| x   Dead note
| g   Grace note
| (n) Ghost note
| h   Hammer-on
| p   Pull-off
| r   Release
| >   Accented note
| t   Tapping
| b   Bend
| br  Bend release
| pb  Pre-bend
| pbr Pre-bend release
| /   Slide up
| \   Slide down
| ~   Vibrato
| s   Slap
| P   Pop
| PM  Palm mute
| TR  Trill
| N   Tremolo

************************************
Suggest correction
Give kudos to tab author, rate the tab!
1 2 3 4 5
comments
print report bad tab
guest
You may want to rate the tab now too:
select rating
Wanna post a correction for this tab? Suggest correction