Oops, an error
Loading. Please wait.

13 Voices Tab

version 1
version 1

Intro

Whole song

  • This tab is different and unique because it shows ... Show more
1,420 views 129 this week
no commentswrite comment
1 2 3 4 5
3 more votes to show rating
add to favorites
launch autoscroll
font size
0
reset
how to read this tab
guitar tuner
Autoscroll
slow
fast
+/-
esc
set tempo
stop
Help us to improve Ultimate-Guitar.com Take our survey!
×
Author
Difficulty
novice
[Intro]

For the timing, listen to the song and play along but it's not that hard.

Part I 
  Em                        B                            C
e|--7-7----------7-7-------|-----7-7----------7-7-------|------8-8--------------8-8---------|
B|--8-8-8--------8-8-8-----|-----7-7-7--------7-7-7-----|------8-8--------------8-8---------|
G|--9-----9------9-----9---|-----8-----8------8-----8---|------9---9------------9---9-------|
D|9-9-------9--9-9-------9-|-----9-------9----9-------9-|-----10-----10--------10-----10----|
A|7------------7-----------|---9-9----------9-9---------|--10-10--------10--10-10--------10-|
E|-------------------------|-6/7------------7-----------|-7/8----------------8--------------|

  B             B5\A5\G5
e|--7----7----7--------|
B|--7----7----7--------|
G|--8----8----8--------|
D|--9----9----9--------|
A|9-9--9-9--9-9--9\7\5-|
E|7----7----7----7\5\3-|


Part II (Almost the same but less picking)
  Em                      B                        C
e|--7-7----7----7-7----7-|---7------7----7------7-|-----8------8------8-------8----|
B|--8-8----8----8-8----8-|---7------7----7------7-|-----8------8------8-------8----|
G|--9-9----9----9-9----9-|---8------8----8------8-|-----9------9------9-----9---9--|
D|9-9-9--9-9--9-9-9--9-9-|-----9----9------9----9-|----10-----10-----10----10---10-|
A|7------7----7------7---|-9------9-9--9------9-9-|-10-10--10-10--10-10--10--------|
E|-----------------------|-7------7----7------7---|-8------8------8------8---------|

  B                B5\A5\G5
e|---7-----7-----7--------|
B|---7-----7-----7--------|
G|---8-----8-----8--------|
D|---9-----9-----9--------|
A|9--9--9--9--9--9--9\7\5-|
E|7-----7-----7-----7\5\3-|

************************************

| /   Slide up
| \   Slide down

************************************
Suggest correction
Give kudos to tab author, rate the tab!
1 2 3 4 5
comments
print report bad tab
guest
You may want to rate the tab now too:
select rating
Wanna post a correction for this tab? Suggest correction