Oops, an error
Loading. Please wait.

13 Voices Tab

version 1
version 1

Whole song

  • This tab is different and unique because it shows ... Show more
970 views 198 this week
no commentswrite comment
1 2 3 4 5
x 4
add to favorites
launch autoscroll
font size
0
reset
how to read this tab
guitar tuner
Autoscroll
slow
fast
+/-
esc
set tempo
stop
Help us to improve Ultimate-Guitar.com Take our survey!
×
Author
Difficulty
intermediate
About this tab version
This tab is different and unique because it shows not only the notes of how to play the song, but it explains the rhythms and the spots where I think learners should take the most time to practice on because learning this song could take time. I also give a video link demonstrating how to play it and will soon run a tutorial with this very tab in the video. Was this info helpful? Yes No
13 Voices Tabbed By Cody Chapman
Artist: Sum 41
Album: 13 Voices

Here is my tabbed out version of the song that I covered on my Youtube channel at 17;50 of this 
video: https://www.youtube.com/watch?v=bMebUEG39f4

I Know this will not be 100% correct as I learned this whole album by ear, this song isn't the
hardest to play, but learning this was a real pain, it is technical when it comes to the rhythm
and i will be honest, sometimes the guitar parts get drowned out in the mix, but this has been
done to the best of my ability, so please enjoy and good luck :)

A video tutorial will come up soon and I will update this tab soon with the link...


Tuning: Standard

[Intro] (Very Long So I Broke It In 4 Parts)
[Intro A]

(Clean)

*The Rhythm Of The Strums In The Begin Will Be Pretty Long And Hard To Tab, 
Just Take These Chords And Listen To Song To Get The Pattern*

e|-7----7----8----7--------------------------------------------------------------|
B|-8----7----8----7--------------------------------------------------------------|
G|-9----8----9----8--------------------------------------------------------------|
D|-9----9----10---9--------------------------------------------------------------|
A|-7----9----10---9--9--7--5-----(Repeat 2 Times)--------------------------------|
E|-0----7----8----7--7--5--3-----------------------------------------------------|

[Intro B]

(Kick In Distortion)

*Rhythm on this part was way too difficult to listen to so if you follow the notes
and patterns here, you will learn this no problem.*

e|-----------------------------------------------------------------------------------|
B|-----------------------------------------------------------------------------------|
G|-----------------------------------------------------------------------------------|
D|---9-------7-7-9-----------------------------------4-------7------(Repeat Phrase---|
A|---7--7777-5-5-7--7777--9--12---9-9---9-2-4-5------2-(x4)--5-5-4------2 Times------|
E|------------------------7--10---7-7---7-0-2-3 (x8)-----------3-2-------------------|

e|---------------------------------------------------------------------------|
B|---------------------------------------------------------------------------|
G|---------------------------------------------------------------------------|
D|-2-----------(On Repeat----------------------------------------------------|
A|-2--(x6)-----End With This)------------------------------------------------|
E|-0-------------------------------------------------------------------------|

[Intro C]

*The Main Guitar Line Is Very Difficult To Hear So I play This And It Sounds
Great.*
e|----------------------!-----------------------------------------------------|
B|----------------------!-----------------------------------------------------|
G|---9---7--8-----------!-11--11---11--11--11---------------------------------|
D|---x---x--x--7-5-4-9--!--x--x-----x--x---x--(Repeat 3-----------------------|
A|---7---5--6--7-5-4-9--!--9--9-----9--9---9-----Times Into Verse)------------|
E|-------------5-3-2-7--!-----------------------------------------------------|


[Verse] [A]

e|----------------------------------------------------------------------------------------|
B|----------------------------------------------------------------------------------------|
G|-11-11--11--12-12---12--14-14-------------12-------14-------11-------12--10--12--11-----|(x2)
D|--x-x---x---x--x----x---x--x-----(x2)------x-(x9)---x--(x2)--x--(x5)--x---x---x---x-----|
A|--9-9---9/-10-10---10--/12--12------------10-------12-------9--------14--12--10--9------|
E|----------------------------------------------------------------------------------------|

[Pre Chorus]

e|---------------------------------------------------------------------------|
B|---------------------------------------------------------------------------|
G|--2-4----------------------------------------------------------------------|
D|--2-4----------------------------------------------------------------------|
A|--0-2-------------7-6/2--2-2-2-2-------------------------------------------|
E|--------0-2-3-3/5----------------5-3-0-------------------------------------|


[Chorus 1]

e|---------------------------------------------------------------------------|
B|---------------------------------------------------------------------------|
G|-----5-----4------------9/8------------------------------------------------|
D|--2--5--5--4------(x2)--x-x------------------------------------------------|
A|--2--3--5--2------------7/6------------------------------------------------|
E|--0-----3------------------------------------------------------------------|

[Verse 2]

*Notes Are All The Same Just Switch Up Pattern.*

e|---------------------------------------------------------------------------|
B|---------------------------------------------------------------------------|
G|---------------------------------------------------------------------------|
D|-22--55----44--------------------------------------------------------------|
A|-22--33-55-22--------------------------------------------------------------|
E|-00-----33-----------------------------------------------------------------|

[Pre Chorus]

e|---------------------------------------------------------------------------|
B|---------------------------------------------------------------------------|
G|--2-4----------------------------------------------------------------------|
D|--2-4----------------------------------------------------------------------|
A|--0-2-------------7-6/2--2-2-2-2-------------------------------------------|
E|--------0-2-3-3/5----------------5-3-0-------------------------------------|

[Chorus]

e|---------------------------------------------------------------------------|
B|---------------------------------------------------------------------------|
G|-----5-----4---------------------------------------------------------------|
D|--2--5--5--4------(x2)-----------------------------------------------------|
A|--2--3--5--2---------------------------------------------------------------|
E|--0-----3------------------------------------------------------------------|
[Break 1] 

(Clean)


e|-----------------------------------------|
B|-----------------------------------------|
G|----5------4-----------------------------|
D|-2--5--5---4-----(x2)--------------------|
A|-2--3--5---2-----------------------------|
E|-0-----3---------------------------------|

[Break 1B]

(Kick Back In That Distortion)

*Listen Close For Rhythm Here.*
e|---------------------------------------------------------------------------|
B|---------------------------------------------------------------------------|
G|---------------------------------------------------------------------------|
D|-2-4-5-7-9-5-7-4-2~~~------------------------------------------------------|
A|-2-4-5-7-9-5-7-4-2~~~------------------------------------------------------|
E|-0-2-3-5-7-3-5-2-0~~~------------------------------------------------------|

[Solo]


e|---------------------------------------------------------------------------|
B|--10p0--12p0--13p0--10p0--12p0--10p0--12p0---------------------------------|
G|----------------------------------------------(x4)-------------------------|
D|------------------------------------------------------2--------------------|
A|------------------------------------------------------2----(x5)------------|
E|------------------------------------------------------0--------------------|

[Chorus]


e|---------------------------------------------------------------------------|
B|---------------------------------------------------------------------------|
G|-----5-----4---------------------------------------------------------------|
D|--2--5--5--4------(x2)-----------------------------------------------------|
A|--2--3--5--2---------------------------------------------------------------|
E|--0-----3------------------------------------------------------------------|

[Outro]
e|---------------------------------------------------------------------------|
B|---------------------------------------------------------------------------|
G|---------------------------------------------------------------------------|
D|-2-2-2-2-2-2-2-22----------------------------------------------------------|
A|-2-2-2-2-2-2-2-22----------------------------------------------------------|
E|-0-0-0-0-0-0-0-00----------------------------------------------------------|


************************************

| x   Dead note
| g   Grace note
| (n) Ghost note
| h   Hammer-on
| p   Pull-off
| r   Release
| >   Accented note
| t   Tapping
| b   Bend
| br  Bend release
| pb  Pre-bend
| pbr Pre-bend release
| /   Slide up
| \   Slide down
| ~   Vibrato
| s   Slap
| P   Pop
| PM  Palm mute
| TR  Trill
| N   Tremolo

************************************
Suggest correction
comments
print report bad tab
guest
You may want to rate the tab now too:
select rating
Wanna post a correction for this tab? Suggest correction