Oops, an error
Loading. Please wait.

32 Ways To Die Bass Tab

604 views 3 this week
no commentswrite comment
1 2 3 4 5
2 more votes to show rating
add to favorites
launch autoscroll
font size
0
reset
guitar tuner
Autoscroll
slow
fast
+/-
esc
set tempo
stop
Help us to improve Ultimate-Guitar.com Take our survey!
×
-------------------------------------------------------------------------------
			     32 Ways To Die - Sum 41
-------------------------------------------------------------------------------

Tabbed By : Punk P-Bassist
e-mail: sniperscope308@hotmail.com

Tuning: Standard

This is a sweet song and there were no tabs for it, but I'm sure this is right
And yes, this is the whole song, it's only a minute and a half.


Intro
G|-----------------------------------0-0-0-0------------------------------|
D|------------------3-3-3-3---------------------------3-3-3-3-------------|
A|-3-3-3-3-33333333---------33333333---------33333333---------33333333-3~-|
E|------------------------------------------------------------------------|

Slide (Continue Strumming)
G|------|
D|------|
A|-15/3-|
E|------|

Main Riff
G|----------------------------0-0-0-0-|
D|----------3-3-3333------------------|
A|-3-3-3333----------3-3-3333---------|
E|------------------------------------|

G|----------------------------0-0-0-0-|
D|----------3-3-3333------------------|
A|-3-3-3333----------3-3-3333---------|
E|------------------------------------|

G|----------------------------0-0-0-0-|
D|----------3-3-3333------------------|
A|-3-3-3333----------3-3-3333---------|
E|------------------------------------|

G|----------------------------0-0-----|
D|----------3-3-3333------------------|
A|-3-3-3333----------3-3-3333-----3~~-|
E|------------------------------------|



| /  slide up
| \  slide down
| h  hammer-on
| p  pull-off
| ~  vibrato
| +  harmonic
| x  Mute note
===============================================================================
Suggest correction
Give kudos to tab author, rate the tab!
1 2 3 4 5
comments
print report bad tab
guest
You may want to rate the tab now too:
select rating
Wanna post a correction for this tab? Suggest correction