Oops, an error
Loading. Please wait.

32 Ways To Die Ukulele Chords

28 views 1 this week
no commentswrite comment
1 2 3 4 5
3 more votes to show rating
add to favorites
launch autoscroll
font size
0
reset
transpose
0
reset
display chords
guitar tuner
Autoscroll
slow
fast
+/-
esc
set tempo
stop
Help us to improve Ultimate-Guitar.com Take our survey!
×
Sum 41
32 Ways To Die
Half Hour Power
2000
Submitted by: paramore_fans@yahoo.com

Key: C

Tuning: Standard EADGBe

Chords used:
C - x32010
F - 133211


Intro: Stevo Drum Solo


Verse: C-- x8

Dave:
e|------------------------------------------|
B|------------------------------------------|
G|-9-----9--10----10--12-------12--10----10-|
D|-x-----x---x-----x---x--------x---x-----x-|
A|-7-7-7-7---8-8-8-8--10-10-10-10---8-8-8-8-|
E|------------------------------------------|


C--F-- x16

Dave:
e|-------------------|
B|-------------------|
G|-9-----9--10----10-|
D|-x-----x---x-----x-|
A|-7-7-7-7---8-8-8-8-|
E|-------------------|


Outro: C(hold)

Dave:
e|---
B|---
G|-9-
D|-x-
A|-7-
E|---
Suggest correction
Give kudos to tab author, rate the tab!
1 2 3 4 5
comments
print report bad tab
guest
You may want to rate the tab now too:
select rating
Wanna post a correction for this tab? Suggest correction