Oops, an error
Loading. Please wait.

88 Chords

version 2
version 2

Whole song

2,915 views 3 this week
no commentswrite comment
1 2 3 4 5
x 3
add to favorites
launch autoscroll
font size
0
reset
transpose
0
reset
display chords
guitar tuner
Autoscroll
slow
fast
+/-
esc
set tempo
stop
Help us to improve Ultimate-Guitar.com Take our survey!
×
Sum 41
88
Chuck
2004 Island Records
Submitted by: paramore_fans@yahoo.com

Key: F#

Tuning: Standard EADGBe

Chords used:
Ebm - x688xx or x68876
Ebx - x678xx
C# -  x466xx or x46664
B -   x244xx or x24442
F# -  244xxx or 244322
Bbm - x133xx or x13321
G#m - 466xxx or 466444
Eb -  x68886


Intro: Ebm--B--G#m--Bbm-- x4

Dave:
        Ebm                 B                G#m              
Bbm
e|-----------------|-----------------|-----------------|-----------------|
B|-----------------|-----------------|-----------------|-----------------|
G|-----------------|-----------------|-----------------|-------------1-1-|
D|-1-1-4-1-3-1-1-1-|-----4---3---1-1-|-----3---4---3-3-|-----3---4-------| x4
A|-----------------|-2-2---2---2-----|-----------------|-1-1---1---1-----|
E|-----------------|-----------------|-4-4---4---4-----|-----------------|


Verse 1:
Ebm   B        F#        Ebm
Wait, how long would you wait
Ebx      C#    Ebm
Just for me to call
  B        F#      Ebm
I know you make mistakes
        Ebx
yeah but I hope some
C#              F#
day you have it all


Chorus 1:
      Ebm
cause I feel
       C#
like a prisoner
          B
trapped inside this
       F#
broken world
      Ebm
while I'm playing
    C#
the victim again
B             F#
running in circles
   B               F#
to me it's all the same
           C#
and though nothing's
      Ebm
gonna change still
B            C#
  I hope someday
            F#
you have it all


Interlude:

Deryck: 
x2

Dave:
     Q    E  E  E  Q    E     Q    E  E E  Q    E     E  E  E  E  E E  E  E
E||--6----4--6--L--6----4--|--6----4--6--L--6----6--|--4--4--2--2--1--1--------|
B||------------------------|------------------------|--------------------2--2--|
G||------------------------|------------------------|--------------------------|
D||------------------------|------------------------|--------------------------|
A||------------------------|------------------------|--------------------------|
E||------------------------|------------------------|--------------------------|

  E  E  E  E  E  E  E  E    Q    E  E  Q    E  E     Q    E  E Q    E  E
--------------------------|------------------------|------------------------|
--------------------------|-------0--2--L----------|--0----2--0--L----------|
--------------1--1--------|--3---------------3--3--|------------------3--3--|
--3--3--4--4--------3--3--|------------------------|------------------------|
--------------------------|------------------------|------------------------|
--------------------------|------------------------|------------------------|

  E  E  E  E  E  E  E  E    E  E  E  E  E  E  E E
--------------------------|--------------------------||
--------------------------|--------------------------||
--------------------------|--------------------------||
--4--4--3--3--1--1--------|--------------------------||
--------------------4--4--|--1--1--2--4--1--1--1--1--||
--------------------------|--------------------------||


Verse 2:
Ebm
take this aggravation that
     B               F#
I've thrown myself into
Ebm
change this situation just
      B                C#
cause I need something new


Chorus 2:
      Ebm
cause I feel
       C#
like a prisoner
          B
trapped inside this
       F#
broken world
      Ebm
while I'm playing
    C#
the victim again
B             F#
running in circles
   B               F#
to me it's all the same
           C#
and though nothing's
      Ebm
gonna change still
G#m          C#
  I hope someday
            F#
you have it all


Interlude: Ebm--B--G#m--Bbm--Ebm--B--


G#m          Bm
  I hope someday
you have it all


Bridge:

Dave: Ebm all the way
     |---3--|  |--3--|  |---3--|  |--3--|
     E   E  E  E  E  E  E 
 E  E  E  E  E
E||--6h-----------------6h-----------------|
B||------7-----------7------7-----------7--|
G||---------8-----8------------8-----8-----|
D||------------8------------------8--------|
A||----------------------------------------|
E||----------------------------------------|

  |---3--|  |--3--|  |---3--|  |--3--|
  E   E  E  E  E  E  E   E E  E  E  E
--6h-----------------6h-----------------|
------7-----------7------7-----------7--|
---------8-----8------------8-----8-----|
------------8------------------8--------|
----------------------------------------|
----------------------------------------|

  |---3--|  |--3--|  |---3--|  |--3--|
  E   E  E  E  E  E  E   E E  E  E  E
--7p--4-----------4--7p--4--0-----0--4--|
---------5-----5---------------0--------|
------------4---------------------------|
----------------------------------------|
----------------------------------------|
----------------------------------------|

  |---3---|  |---3--|  |---3--|  |---3---|
  E   E   E  E   E  E  E  E  E  E   E   E
--7p--6p--4--6p--4--2--4--2p--1------1h--2--|
---------------------------------4h---------|
--------------------------------------------|
--------------------------------------------|
--------------------------------------------|
--------------------------------------------|

  |---3--|  |--3--|  |---3--|  |--3--|
  E   E  E  E  E  E  E   E E  E  E  E
--6p--2-----------2--6p--2-----------2--|
---------4-----4------------4-----4-----|
------------3------------------3--------|
----------------------------------------|
----------------------------------------|
----------------------------------------|

  |---3--|  |--3--|  |---3--|  |--3--|
  E   E  E  E  E  E  E   E E  E  E  E
--6p--2-----------2--6p--2-----------2--|
---------4-----4------------4-----4-----|
------------3------------------3--------|
----------------------------------------|
----------------------------------------|
----------------------------------------|

  |---3--|  |--3--|  |---3--|  |--3--|
  E   E  E  E  E  E  E   E E  E  E  E
--7p--4--0-----0--4--7p--4--0-----0--4--|
------------0------------------0--------|
----------------------------------------|
----------------------------------------|
----------------------------------------|
----------------------------------------|

  |---3---|  |---3--|  |---3--|  |---3---|
  E   E   E  E   E  E  E  
  E  E   E   E     Q.       E    H
--7p--6p--4--6p--4--2--4--2p--1------1h--2--|-------------------------|
---------------------------------4h---------|--4h------(4)\-----------|
--------------------------------------------|-------------------------|
--------------------------------------------|-------------------------|
--------------------------------------------|-------------------------|
--------------------------------------------|-------------------------|

  PM PM PM PM PM PM PM PM PM PM PM PM PM
  S  S  S  S  S  S  S  S  S  S  S  S  E  E
--------------------------------------------|
--------------------------------------------|
--------------------------------------------|
--------------------------------------------|
--1--1--1--1--1--1--1--1--1--1--1--1--1-----|
--------------------------------------------|

  PM PM PM PM PM    PM PM PM PM PM
  S  S  S  S  E  E  S  S  S  S  E  E
--------------------------------------|
--------------------------------------|
--------------------------------------|
--------------------------------------|
--1--1--1--1--1-----1--1--1--1--1-----|
--------------------------------------|

  PM PM PM PM PM PM PM PM PM PM PM PM
  S  S  S  S  S  S  S  S  S  S  S  S   Q         S S S S S S S S Q    S S S S
--------------------------------------(6)S----|-------------------------------|
--------------------------------------(4)S----|-------------------------------|
--------------------------------------(3)S----|--x----------------------------|
----------------------------------------------|--x---------------4------------|
--1--1--1--1--1--1--1--1--1--1--1--1--(6)S----|------------------4----1-1-1-1-|
----------------------------------------------|--6-6-6-6-6-6-6-6-2------------|

  S S S S Q    S S S S Q       S S S S S S S S Q    S S S S
----------------------------|-------------------------------|
----------------------------|-------------------------------|
----------------------------|-------------------------------|
----------3------------4----|------------------4------------|
--1-1-1-1-3----1-1-1-1-4----|--1-1-1-1-1-1-1-1-4----1-1-1-1-|
----------1------------2----|------------------2------------|

  S S S S Q    S S S S Q       S S S S S S S S Q    S S S S
----------------------------|-------------------------------|
----------------------------|-------------------------------|
----------------------------|-------------------------------|
----------3------------4----|------------------4------------|
--1-1-1-1-3----1-1-1-1-4----|--1-1-1-1-1-1-1-1-4----1-1-1-1-|
----------1------------2----|------------------2------------|

  S S S S Q    S S S S Q       S S S S E  E  S S S S E  E
----------------------------|------------------------------|
----------------------------|------------------------------|
----------------------------|------------------------------|
----------3------------4----|------------------------------|
--1-1-1-1-3----1-1-1-1-4----|--1-1-1-1-1-----1-1-1-1-1-----|
----------1------------2----|------------------------------|

                                       wah wah powa !
                                       W
  S S S S S S S S S S S S  E    E      W                    W
-----------------------------------|---2b----------------|--L----------------|
--------------------------(4)S--L--|--(x)----------------|-------------------|
--------------------------(3)S--L--|--(x)----------------|-------------------|
-----------------------------------|---------------------|-------------------|
--1-1-1-1-1-1-1-1-1-1-1-1--1-------|---------------------|-------------------|
-----------------------------------|---------------------|-------------------|

  W                   H        Q    Q
--L----------------|--L--------L----2\----|
-------------------|----------------------|
-------------------|----------------------|
-------------------|----------------------|
-------------------|----------------------|
-------------------|----------------------|

   A faire avec une pedal de pitch (whammy)
   TP                                       TP   TP    TP  TP  TP
   E.                                       E.   Q     E   E  E
--14---------------------------------------16---14----16--14--16--|
------------------------------------------------------------------|
------------------------------------------------------------------|
------------------------------------------------------------------|
------------------------------------------------------------------|
------------------------------------------------------------------|

   TP   TP   TP    TP  TP  TP
   E.   E.   Q     E   E   E
--14---16---14----16--14--16--|
------------------------------|
------------------------------|
------------------------------|
------------------------------|
------------------------------|

   TP  TP  TP  TP  TP  TP  TP  TP TP  TP  TP  TP
   |---3---|   |---3---|   |---3--|   |---3---|
   E   E   E   E   E   E   E  E  E   E   E   E
--14--14--11--14------------------9--------------|
-------------------------------------11--11------|
------------------13--11--13--11-------------11--|
-------------------------------------------------|
-------------------------------------------------|
-------------------------------------------------|

   TP  TP TP TP TP TP TP TP TP W
   |---3--|  |--3--|  |--3--|
   E   E  E  E  E  E  E  E E  Q        S S S S E  E  S S S S E  E
----------------------4--------------|------------------------------|
--11--11--9--9--7--7-----4--2--4S----|------------------------------|
-------------------------------------|------------------------------|
-------------------------------------|------------------------------|
-------------------------------------|--1-1-1-1-1-----1-1-1-1-1-----|
-------------------------------------|------------------------------|

                                     ^
  S S S S S S S S S S S S  Q         W
----------------------------------|-------------------||
--------------------------(4)S----|--4----------------||
--------------------------(3)S----|--3----------------||
--------------------------(1)S----|--4----------------||
--1-1-1-1-1-1-1-1-1-1-1-1---------|--6----------------||
----------------------------------|--6----------------||

Outro:
Eb--Ebm-C# x4


   Eb             Ebm
if we could all depend
   C#
on what we know
   Eb              Ebm
if you could understand
    C#            Eb
I'm losing control
    C#            Eb
I'm losing control
    C#            Ebm
I'm losing control


Piano: Outro
     Q    Q    Q    Q       W                   Q    Q    Q    Q
E||--3----2----6----3----|--L----------------|--2----3----6----2----|
B||----------------------|-------------------|----------------------|
G||--3-------------------|--L----------------|--1--------------L----|
D||--5-------------------|--L----------------|--4--------------L----|
A||----------------------|-------------------|----------------------|
E||----------------------|-------------------|----------------------|

  W                   Q    Q    Q    Q       W
--4----------------|--3----2----6----3----|--L----------------|
--4----------------|----------------------|-------------------|
-------------------|--3-------------------|--L----------------|
--6----------------|--5-------------------|--L----------------|
-------------------|----------------------|-------------------|
-------------------|----------------------|-------------------|

  Q    Q    Q    Q       W                   Q    Q    Q    Q
--2----3----6----2----|--4----------------|--3----2----6----3----|
----------------------|--4----------------|----------------------|
--1--------------L----|-------------------|--3-------------------|
--4--------------L----|--6----------------|--5-------------------|
----------------------|-------------------|----------------------|
----------------------|-------------------|----------------------|

  W                   Q    Q    Q    Q       W
--L----------------|--2----3----6----2----|--4----------------|
-------------------|----------------------|--4----------------|
--L----------------|--1--------------L----|-------------------|
--L----------------|--4--------------L----|--6----------------|
-------------------|----------------------|-------------------|
-------------------|----------------------|-------------------|

  Q    Q    Q    Q       W                   Q    Q    Q    Q
--3----2----6----3----|--L----------------|--2----3----6----2----|
----------------------|-------------------|----------------------|
--3-------------------|--L----------------|--1--------------L----|
--5-------------------|--L----------------|--4--------------L----|
----------------------|-------------------|----------------------|
----------------------|-------------------|----------------------|

  W                   Q    Q    Q    Q       W
--4----------------|--3----2----6----3----|--L----------------|
--4----------------|----------------------|-------------------|
-------------------|--3-------------------|--L----------------|
--6----------------|--5-------------------|--L----------------|
-------------------|----------------------|-------------------|
-------------------|----------------------|-------------------|

  Q    Q    Q    Q       W                   Q    Q    Q    Q
--2----3----6----2----|--4----------------|--3----2----6----3----|
----------------------|--4----------------|----------------------|
--1--------------L----|-------------------|--3-------------------|
--4--------------L----|--6----------------|--5-------------------|
----------------------|-------------------|----------------------|
----------------------|-------------------|----------------------|

  W                   Q    Q    Q    Q       W
--L----------------|--2----3----6----2----|--4----------------|
-------------------|----------------------|--4----------------|
--L----------------|--1--------------L----|-------------------|
--L----------------|--4--------------L----|--6----------------|
-------------------|----------------------|-------------------|
-------------------|----------------------|-------------------|

  Q    Q    Q    Q       W                   Q    Q    Q    Q
--3----2----6----3----|--L----------------|--2----3----6----2----|
----------------------|-------------------|----------------------|
--3-------------------|--L----------------|--1--------------L----|
--5-------------------|--L----------------|--4--------------L----|
----------------------|-------------------|----------------------|
----------------------|-------------------|----------------------|

  W                   W
--4----------------|--3----------------||
--4----------------|-------------------||
-------------------|--3----------------||
--6----------------|--5----------------||
-------------------|-------------------||
-------------------|-------------------||
Suggest correction
Give kudos to tab author, rate the tab!
1 2 3 4 5
comments
print report bad tab
guest
You may want to rate the tab now too:
select rating
Wanna post a correction for this tab? Suggest correction