Oops, an error
Loading. Please wait.

88 Tab

version 3
version 3
6,848 views 12 this week
2 commentsread comments
1 2 3 4 5
excellent!
x 8
add to favorites
launch autoscroll
font size
0
reset
how to read this tab
guitar tuner
Autoscroll
slow
fast
+/-
esc
set tempo
stop
Help us to improve Ultimate-Guitar.com Take our survey!
×
Author
88 - Sum 41
Standard Tuning & 1/2 step down
Tabbed By YoYoJoe

I updated it.  It wasnt perfect so I had to fix it.

Intro
Guitar 1
|----------------------------------|
|----------------------------------|
|-------------------------------22-|
|---5-4-22--5-4-22--4-5-22--4-5----|
|---------33-3-3--00-0-0--22-2-2---|
|-00-0-0---------------------------|

Guitar 2
|-7-------------------------------------------|
|-8--------------------------------10-----12--|
|-9------------------------------------9------|
|---------------------------------------------|
|---------------------------------------------|
|---------------------------------------------|

Main Riff
Guitar 1
|----------------------------------|
|----------------------------------|
|-------------------------------22-|
|---5-4-22--5-4-22--4-5-22--4-5----|
|---------33-3-3--00-0-0--22-2-2---|
|-00-0-0---------------------------|

Guitar 2
|-------------------------------------------------|
|-12-12-12-12-12-12-12-12-13-13-13-13-13-13-13-13-|
|-9--9--9--9--9--9--9--9--9--9--9--9--9--9--9--9--|
|-------------------------------------------------|
|-------------------------------------------------|
|-------------------------------------------------|

|-------------------------------------------------|
|-10-10-10-10-10-10-10-10-12-12-12-12-12-12-12-12-|
|-9--9--9--9--9--9--9--9--9--9--9--9--9--9--9--9--|
|-------------------------------------------------|
|-------------------------------------------------|
|-------------------------------------------------|

Verse 1
(Clean) Guitar 1
 Em C Am
|-0-0-0-|
|-0-1-1-|
|-0-0-2-|
|-2-2-2-|
|-2-3-0-|
|-0-----|

 Em
Wait...
 C        Am        Em
how  long would you wait?
 C       Am     Em
Just for Me to call.
   C        Am       Em
I Know you make mistakes, yeah but...
C           Am               Em
I hope some day you have it all

Chorus (Both Guitars)
|-------------------------------------------------------------|
|-------------------------------------------------------------|
|-7--7-7-7-7-7-7-5--5-5-5-5-5-5-------------------------------|
|-7--7-7-7-7-7-7-5--5-5-5-5-5-5-5--5-5-5-5-5-5-2--2-2-2-2-2-2-|
|-5--5-5-5-5-5-5-3--3-3-3-3-3-3-5--5-5-5-5-5-5-2--2-2-2-2-2-2-|
|-------------------------------3--3-3-3-3-3-3-0--0-0-0-0-0-0-|

|-------------------------------------------------------------|
|-------------------------------------------------------------|
|-7--7-7-7-7-7-7-5--5-5-5-5-5-5-------------------------------|
|-7--7-7-7-7-7-7-5--5-5-5-5-5-5-5--5-5-5-5-5-5-2--2-2-2-2-2-2-|
|-5--5-5-5-5-5-5-3--3-3-3-3-3-3-5--5-5-5-5-5-5-2--2-2-2-2-2-2-|
|-------------------------------3--3-3-3-3-3-3-0--0-0-0-0-0-0-|

|-------------------------------------------------------------|
|-------------------------------------------------------------|
|-5--5-5-5-5-5-5-------------------------------7--7-7-7-7-7-7-|
|-5--5-5-5-5-5-5-2--2-2-2-2-2-2-5--5-5-5-5-5-5-7--7-7-7-7-7-7-|
|-3--3-3-3-3-3-3-2--2-2-2-2-2-2-5--5-5-5-5-5-5-5--5-5-5-5-5-5-|
|----------------0--0-0-0-0-0-0-3--3-3-3-3-3-3----------------|

|-------------------------------------------------------------|
|-------------------------------------------------------------|
|----------------5--5-5-5-5-5-5-------------------------------|
|-5--5-5-5-5-5-5-5--5-5-5-5-5-5-2--2-2-2-2-2-2-2-2-2-2-2-2...-|
|-5--5-5-5-5-5-5-3--3-3-3-3-3-3-2--2-2-2-2-2-2-2-2-2-2-2-2...-|
|-3--3-3-3-3-3-3----------------0--0-0-0-0-0-0-0-0-0-0-0-0...-|
                                *
                             In the second chorus stop at this 
                             point and go to the Main Riff.

Solo 1
Guitar 1 (w/ tremelo)
|-7--5-7-7--5-7--5-7-7-5--------------------------------------------|
|------------------------8-7----------------------------------------|
|----------------------------7-5------------------4--5-7-4--4-5-4---|
|--------------------------------4-4--5-5-7-7-4-4-----------------7-|
|-------------------------------------------------------------------|
|-------------------------------------------------------------------|

|-------------------------------|
|-------------------------------|
|-------------------------------|
|-5-5-4-4-----------------------|
|---------5-5-3-3-2-2-5-5-2-2-2-|
|-------------------------------|
Guitar 2
|---------------------------------|
|---------------------------------|
|---------------------------------|
|---------5-5-5-5-2-2-2-2-4-4-4-4-|
|-2-2-2-2-3-3-3-3-0-0-0-0-2-2-2-2-|
|-0-0-0-0-------------------------|

Verse 2
Guitar 1
|-------------------------------------------------|
|-------------------------------------------------|
|---------------------5--5-5-5-5-5----------------|
|-2_2_2_2-2-2_2_2_2-2-5--5-5-5-5-5-5--5-5-5-5-5-5-|
|-2_2_2_2-2-2_2_2_2-2-3--3-3-3-3-3-5--5-5-5-5-5-5-|
|-0_0_0_0-0-0_0_0_0-0--------------3--3-3-3-3-3-3-|

|-------------------------------------------------|
|-------------------------------------------------|
|---------------------5--5-5-5-5-5-7--7-7-7-7-7-7-|
|-2_2_2_2-2-2_2_2_2-2-5--5-5-5-5-5-7--7-7-7-7-7-7-|
|-2_2_2_2-2-2_2_2_2-2-3--3-3-3-3-3-5--5-5-5-5-5-5-|
|-0_0_0_0-0-0_0_0_0-0-----------------------------|

Solo 2

Guitar 2
|--------------------|
|--------------------|
|--------------------|
|-2--2---2--2---2--2-|
|-2--2---2--2---2--2-|
|-0--0---0--0---0--0-|
PM__________________

(Rythem line for first part of solo)
Guitar 2
|----------|
|----------|
|----------|
|-22222----|
|-22222----|
|-00000----|
PM_____

Guitar 1
|---------------------------------------------------------|     \
|-t12p8p5p0h5h8-t12p8p5p0h5h8-t12p8p5p0h5h8-t12p8p5p0h5h8-|      \
|---------------------------------------------------------|       \
|---------------------------------------------------------|        \
|---------------------------------------------------------|         \
|---------------------------------------------------------|          \
                                                                      X2
|--------------------------------------------------------------|     /
|-t13p8p5p0h5h8-t13p8p5p0h5h8-t13p12p10-t12p10p8-t10p8p7p0h5h8-|    /
|--------------------------------------------------------------|   /
|--------------------------------------------------------------|  /
|--------------------------------------------------------------| /
|--------------------------------------------------------------|/

|----|
|----|
|-9\-|
|----|
|----|
|----|

Rhythem changes to:
Guitar 2
|---------------------------------|
|---------------------------------|
|---------------------------------|
|-22222----22222----2222222222----|
|-22222----22222----2222222222----|
|-00000----00000----0000000000----|
PM____________________________
Guitar 1
|-----|------------------------------|
|-----|------------------------------|
|-----|------------------------------|
|-----|-22222222-5--222222-4--2222-5-| X3
|-----|-22222222-5--222222-4--2222-5-|
|-10\-|-00000000-3--000000-2--0000-3-|
PM      ________    ______    ____

Rhythem Changes to:
|------------------------------|
|------------------------------|
|------------------------------|
|-22222222-5--222222-4--2222-5-|
|-22222222-5--222222-4--2222-5-|
|-00000000-3--000000-2--0000-3-|
PM________    ______    ____
(w/ wah)
|---------|
|---------|
|---------|
|----9~~~-|
|---------|
|-10------|
  *
Use Digitech whammee pedal, drop quickly down on the 10th fret, bottom string then
slowly increase 12 steps up on the 9th fret, 5th string and quickly drop.

(w/ wah)
|-12h15--12h17---12h15--12h17-12h15-12h17-|
|-----------------------------------------|
|-----------------------------------------|
|-----------------------------------------| X2
|-----------------------------------------|
|-----------------------------------------|

(Tremelo Picking, w/wah)
|-12-------------------------|
|----------------------------|
|-----12-----11------10------|
|---------9------12------13\-|
|----------------------------|
|----------------------------|

Rhythem goes back to:
|---------------------------------|
|---------------------------------|
|---------------------------------|
|-22222----22222----2222222222----|
|-22222----22222----2222222222----|
|-00000----00000----0000000000----|
PM____________________________
2 times

Outro
Both Guitars
|-0--|
|-0--|
|-1--|
|-2--|
|-2--|
|-0--|

In the outro the 2 guitars play around the 12th fret near the top, im not sure exactly what it is.
Suggest correction
What's this?
You can suggest a correction to this tab. Community and Mods will review your correction and vote to approve or reject it.
comments
print report bad tab
2 comments total.
0 reply
Chaz13 140 wrote on March 11 2007, 12:35 am

Awesome Tab!

+1 reply
Dimonaft 481 wrote on June 10 2010, 05:48 am

Intro should be so

|----------------------------------|
|----------------------------------|
|-------------------------------22-|
|---5-4-22--5-4-22--4-5-44--4-5----|
|---------33-3-3--00-0-0--22-2-2---|
|-00-0-0---------------------------|

guest
You may want to rate the tab now too:
select rating
Please do not post tabs as comments. Select "correction" instead!