Oops, an error
Loading. Please wait.

88 Tab

version 4
version 4
1,744 views 3 this week
no commentswrite comment
1 2 3 4 5
please rate
add to favorites
launch autoscroll
font size
0
reset
how to read this tab
guitar tuner
Autoscroll
slow
fast
+/-
esc
set tempo
stop
Help us to improve Ultimate-Guitar.com Take our survey!
×
Author
88-Sum41-Chuck
tabbed by:A7xDeathbat77

This is possibly my favorite Sum 41 song and
frankly all the tabs I've seen for it aren't
the greatest.So I figured I'd take a shot at it.

Intro:Guitar 1(heavy distortion)
play 4X
e--------------------------------------------|
B--------------------------------------------|
G--------------------------------------------|
D--------------------------------------------|
A---10-9-77---10-9-77---9-10-99---9-10-12-12-|
E-00--0-0---88--8-8---00-0--0---77-7--7------|

Intro:Guitar 2(light distortion)
play                         then this 2X
e-7---------5---5-77777777-|-77777777888888885555555577777777-|
B-8-----------5---77777777-|-88888888888888885555555577777777-|
G-9-hold for---------------|-9999999999999999-----------------|
D---8 counts---------------|----------------------------------|
A--------------------------|----------------------------------|
E--------------------------|----------------------------------|

Verse 1(clean)
use this chord progression
e-0--0--3--0--0--2-|
B-0--1--3--0--1--3-|
G-0--0--0--0--0--2-|
D-2--2--0--2--2--0-|
A-2--3--x--2--3----|
E-0-----3--0-------|

Chorus:both Guitars
e-------------------------------------------------------------------------|
B-------------------------------------------------------------------------|
G-99999999-77777777-55555555----------99999999-77777777-55555555----------|
D-99999999-77777777-55555555-55555555-99999999-77777777-55555555-55555555-|
A-77777777-55555555-33333333-55555555-77777777-55555555-33333333-55555555-|
E----------------------------33333333----------------------------33333333-|
continued
e------------------------------------------------------------------------|
B------------------------------------------------------------------------|
G-55555555----------77777777-99999999-55555555-77777777------------------|
D-55555555-55555555-77777777-99999999-55555555-77777777-5555555555555555-|
A-33333333-55555555-55555555-77777777-33333333-55555555-5555555555555555-|
E----------33333333-------------------------------------3333333333333333-|

Solo #1:Guitar 1
Played fast
e-7--5-7--5-7--5-7-7--7-5-5-----------------------------|
B---------------------------8-8-7-7---------------------|
G-----------------------------------7-7-----------------|
D---------------------------------------4-4-5-5-7-7-4-4-|
A-------------------------------------------------------|
E-------------------------------------------------------|
continued
e-------------------------------------------------------|
B-------------------------------------------------------|
G-4--5-7--4-4-5--7-5--4-4-------------------------------|
D-------------------------5-5-4-4-2-2-------------------|
A-------------------------------------5-5-2-2-3-5-2-2-2-|
E-------------------------------------------------------|

solo #1:Guitar 2
play this under solo 2X
e----------------------------------------|
B----------------------------------------|
G----------------------------------------|
D------4444------4444------7777----------|
A-2222-2222-5555-2222-2222-5555-55579999-|
E-0000------3333------0000------33357777-|

Verse 2
e---------------------------------------------------------------------|
B---------------------------------------------------------------------|
G-----------------55555555--------------------------55555555-77777777-|
D-----------------55555555-55555555-----------------55555555-77777777-|
A-2-2-2-2-2-2-2-2-33333333-55555555-2-2-2-2-2-2-2-2-33333333-55555555-|
E-0-0-0-0-0-0-0-0----------33333333-0-0-0-0-0-0-0-0-------------------|

Chorus

Intro

Breakdown
play @x
e-------------------------------------------------------|
B-------------------------------------------------------|
G-------------------------------------------------------|
D-------------------------------------------------------|
A-22-22-22-22-22222-22222-22222-22222-22222-22222-22222-|
E-00-00-00-00-00000-00000-00000-00000-00000-00000-00000-|
  xx xx xx xx xxxxx xxxxx xxxxx xxxxx xxxxx xxxxx xxxxx

Okay, all the tabs I've seen for this solo say that it's tapping 
which is wrong, this is a sweep picking solo.

Solo #2-Part 1
begins second time through the breakdown play 2X                        end
e-7p3---3-7p3---3-7p3---3-7p3---3-8p5---5-8p5---5-8p7p5-7p5-5----------|---|
B----5-5-----5-5-----5-5-----5-5-----6-6-----6-6-----------8-8p7-5h7h8-|-5\|
G-----4-------4-------4-------4-------5-------5------------------------|---|
D----------------------------------------------------------------------|---|
A----------------------------------------------------------------------|---|
E----------------------------------------------------------------------|---|

More breakdown
play 2X                      2nd time
e---------------------------|------|
B---------------------------|------|
G---------------------------|------|
D---------------------------|------|
A-22222-22222-2222222222222-|------|
E-00000-00000-0000000000000-|-/12\-|

Even more breakdown
play 3X
e---------------------------|
B---------------------------|
G---------------------------|
D---------5---------4-----5-|
A-222222225-222222224-22225-|
E-000000003-000000002-00003-|
then
e--------------------------------|
B--------------------------------|
G--------------------------------|
D--------------------------------|
A-22222-22222-2222222222222------|
E-00000-00000-0000000000000-/12\-|
next
play 3X with 2nd part of solo
e---------------------------|
B---------------------------|
G---------------------------|
D---------5---------4-----5-|
A-222222225-222222224-22225-|
E-000000003-000000002-00003-|

Solo#2-Part 2
                              use wah or tremolo picking
e-----------------------|-15-12-12-17-12-12-15-12-12-17-12-12-15-12-17-12-|
B-12b-tremolo pick------|-------------------------------------------------|
G-12b-while bending-----|-------------------------------------------------|
D-----the notes up 2----|-------------------------------------------------|
A-----whole steps over--|-------------------------------------------------|
E------16 counts--------|-------------------------------------------------|
continued
e-15-12-12-17-12-12-15-12-12-17-12-12-15-12-17-12-|
B-------------------------------------------------|
G-------------------------------------------------|
D-------------------------------------------------|
A-------------------------------------------------|
E-------------------------------------------------|
continued   fast tremolo picking
e-15-12-15-----------------------------------------|
B---------12-15-12-15-12--12-----------------------|
G-----------------------14--14-14-12-14-12-14b16r\-|
D--------------------------------------------------|
A--------------------------------------------------|
E--------------------------------------------------|

outro
e----------------------------------------|
B----------------------------------------|
G-----4--------4----------4--------4-----|
D-6-5---6--5-6---5-7--6-5---6--5-6---5-7-|
A----------------------------------------|
E----------------------------------------|

The ending is just that repeated a bunch of times.
And there you have it I'm pretty sure that is a little better 
than some of the other tabs out there. 
I you have any problems email me at eyepeesideways@yahoo.com.
Suggest correction
Give kudos to tab author, rate the tab!
1 2 3 4 5
comments
print report bad tab
guest
You may want to rate the tab now too:
select rating
Wanna post a correction for this tab? Suggest correction