Oops, an error
Loading. Please wait.

All Killer No Filler Bass Tab

version 2
version 2

Album

3,145 views 3 this week
6 commentsread comments
1 2 3 4 5
excellent!
x 4
add to favorites
launch autoscroll
font size
0
reset
guitar tuner
Autoscroll
slow
fast
+/-
esc
set tempo
stop
Help us to improve Ultimate-Guitar.com Take our survey!
×
Nothing on my back



Intro: 
G|-----------------|
D|-----------------|
A|-----45------45-5| 4x
E|-555----03-3-----|

Verse1:
G|--------|   |--------|
D|--------|   |--------|
A|--------| 1x|--------| 1x
E|-5--/--0|   |-223-5-5|

G|----------------|
D|----------------|
A|----------------| 1x
E|-3--23--22--00-0|

G|--------|   |--------| 
D|--------|   |--------| 
A|--------| 1x|--------| 1x
E|-5--/--0|   |-223-5-5| 

|-------------------------|
|-------------------------|
|--------55555555-77777777| 1x
|-3--23-------------------|
Chorus:
G|------------------|
D|------------------|
A|----------5555----| 3x
E|-55543333-----0000|

G|------------------|
D|------------------|
A|----------5555----| 1x
E|-55543333-----0r--|

Intro 

Verse2:
G|----------|
D|----------|
A|----------| 12x
E|-5555-3333|

G|--------|
D|--------|
A|-5------| 1x
E|----0r--|

Chorus 

G|--| 
D|--| 
A|-9| (play this note over and over, about 50x) 
E|--|   

Bridge
G|---------|   |------------|
D|---------|   |------------|
A|-5-5--6-7| 4x|-5-5-----6--| 3x
E|----5----|   |-----5-5----|

G|---------|
D|---------|
A|---------| 1x
E|-55555555|

Verse3:
G|--------------------|
D|--------------------|
A|-9999-7777----------| 12x
E|-----------7777-9999|




Never wake up

VERSE
G-------------------------|
D-------------------------|
A--------------4444-------| (x4)
E--4444--0000-------2222--|

CHORUS ("I plan on never waking up...")
G---------------------------------------|
D---------------------------------------|
A--22222222-----------------------------| (x2)
E-----------22222222--0000000000000000--|

VERSE

CHORUS (x4)

END ON
G-----|
D-----|
A-----|
E--4--|

Fat lip	


Intro
G-------
D------- 
A-------
D-2-2-2-

G----------------------
D----------------------   (come in w/ drums, but follow guitar)
A------------------0---
D-0-2-2--2---0-2-2-----

Verse1&2
G---------------------------------
D---------------------------------
A----(then guitar)-0-0(then guitar)   x2
D-2-2-----------------------------

G-------------------------------------
D-------------------------------------    x2
A-------------------44444444--00000000
D-2222222222222222--------------------

Chorus
G----------------------
D----------------------  x2
A-7----4-44------------
D---99------66-77-66-77

Break
G---------------------------------
D---------------------------------
A-----------------0---------------
D-22-2-22-22-2-22---22-2-22-22-2-2

Brigde (bass comes in after "i'll do it again")
G-----9-----9----6---------
D---9-----9----6-----2----- x2
A-7-----6----4-----0---0---
D--------------------------

Verse3
G-------------------
D------------------- (pause when guitar does)
A-----------------0-
D-0-2-2-2---0-2-2---

(abortion.....)
G--------------------------
D--------------------------
A--------------------------
D-\00000000000000000000000-


Ending 
G-------------------
D-------------------
A-----------------0-
D-0-2-2-2---0-2-2---

G--------
D-------- (w/drums)
A--------
D-22--22-

--order
intro
verse1
chorus
intro
verse2
chorus
break
bridge
verse3
chorusx4
ending







Rythems

INTRO
G--------------------------------|
D-----999----999----666----666---|
A--777----777----444----444------|
E--------------------------------|

G--------------------------------|
D-----999----999-----------------|
A--777----777--------------------|
E----------------5555555555555---|

VERSE ("Mad in a way, but I don't stay")
G--------------------------------------------|
D-----99-77-66-------------------------------|
A--77----------4444-66-77--------------44-66-| (x2)
E-------------------------555555555555-------|

G----------------------|
D----------------------|
A-------4444-00000000--|
E--0000----------------|

G-----------------------|
D-----------------------|
A-------4444-(pause)-0--|
E--0000-----------------|

PRE-CHORUS ("What if I would say...")
G----------------------|
D----------------------|
A-------4-----0------2-|
E--0-------------------|

CHORUS ("I know what I want...")
G-----------------------|
D-----------------------|
A--7777-444-6-----------| (x2)
E-------------5555-7777-|

("Since you found me out...")
G-----------------------|
D-----------------------|
A--7777------4444-------| (x2)
E-------7777------55-77-|

INTRO

VERSE

PRE-CHORUS (No Bass)

BREAK ("I know what I want...")
G------------------|
D------------------|
A--7----4----------| (x2)
E------------5-----|



("All the time you thought worth saving...")
G----------------------|
D----------------------|
A-------4444-00000000--| (x2)
E--0000----------------|

CHORUS (First part x2, Then 2nd part x1)

INTRO

ENDING
G------------------------|
D------------------------|
A------------------------| (x2)
E--0000-0000-0000--0--0--|




Motivation


Repeat 3x’
G|-----------------------|
D|-----------------------|
A|-----------------------|
E|--0000-77-55555555-----|


Continued			     Repeat 2x’s (motivation such an..)
G|---------------------------------|--------------------------------|
D|---------------------------------|--------------------------------|
A|------------00000000-------------|---------5-4-2-0------000-222---|
E|--22222222------------00-----00--|--5-7-0-----------4-0-----------|

Leading up to bass solo
G|------------------------------------------------------------------|
D|------------------------------------------------------------------|
A|--44444444-44444444-------------------77777777--------------------|
E|--------------------77777777-45557777----------66666666-55555555--|


Continued
G|----------------------------|
D|----------------------------|
A|----------------------------|
E|--77777777-77777777----00---|

Bass solo 
G|-----9-11-9-9--14-13-11-9--11-9-9--14-13-11-9----|
D|--7h9------9-------------------9-----------------|
A|-------------------------------------------------|
E|-------------------------------------------------|

Concluding bass solo
G|-------------------|
D|-------------------|
A|-------------------|
E|--00-77-22-55------|


Continued
G|--------------------------------------------------------------------|
D|--------------------------------------------------------------------|
A|----2-2-----0-0------0-0-2-2----2-2-----0-0-------000000000-22222222|
E|--0-----2-2-----0-2-2---------0-----2-2-----0-2-2-------------------|

|

Repeats 2x’s (ending)
G|------------------------------------------------------|
D|------------------------------------------------------|
A|------------------------------------------------------|
E|--000-45-54----000-45-54----000-45-54----777-45554----|

In too deep

1st Verse
G|-------------------9-9-0-0--------
D|-7---------7----------------------
A|---7-7-------7-7------------------
E|----------------------------------

1st Pre-Chorus
G|--------------------------------------------------------------------
D|---------------9-9-------------------------------12---7-7-7-7-7/9-9
A|-7-7-9-9/11-11-----0-0-2-2/4-4/6-6-7-7/9-9/11-11-----0--------------
E|--------------------------------------------------------------------

Chorus
G|----------------------------------------------------------------
D|-----2-----------------------------------------7----------------
A|----------------------------------------------------------------
E|-0-0---3/5-5-5-5--0-0-0-3/5-5-5-5--0-0-0-3/5-5---5--0-0-0-3/5-5-

G|-----------------------------------------------------------------
D|-----------------------------------------------------------------
A|-----------------------------------------------------------------
E|-0-0-0-3/5-5-5-5--0-0-0-3/5-5-5-5--0-0-0-3/5-5-5-----------------

G|------------------------------------
D|---------------------------77777777-
A|-2/7-7-7-7-5-5-5-5-0-0-0-2/---------
E|------------------------------------

Post Chorus
G|-----------------------------------------------------------------------
D|-----------------------------------------------------------------------
A|-----2/7--------------2/7--------------2/7------------2/7-9/12-11-9-11-
E|-0-0-----5-5-4-5--0-0-----5-5-4-5--0-0-----5-5-4-5--0------------------

2nd Verse
G|---------------------------------------
D|---------------------------------------  (x2)
A|---------------------------------------
E|-0-0---4-5-5---5-0-0--4-5-5-4-5-5---5--

Pre Chorus
G|----------------------------------------------------------------
D|-------------------------------------------------7-7-7-7-7-7-7-7
A|-----------------0-0-0-0-0-0-0-2/7-7-7-7-7-7-7-7----------------
E|-0-0-0-0-0-0-0-0------------------------------------------------

Chorus
G|----------------------------------------------------------------
D|-----2-----------------------------------------7----------------
A|----------------------------------------------------------------
E|-0-0---3/5-5-5-5--0-0-0-3/5-5-5-5--0-0-0-3/5-5---5--0-0-0-3/5-5-

G|-----------------------------------------------------------------
D|-----------------------------------------------------------------
A|-----------------------------------------------------------------
E|-0-0-0-3/5-5-5-5--0-0-0-3/5-5-5-5--0-0-0-3/5-5-5-----------------

G|-----------------------------------------------7~------------------
D|-----------------------------------------------------------77777777
A|-2/7-7-7-7-5-5-5-5-0-0-0-0-0-0-0-2/7-7-7-7-5-5---5-0-0-0-2/--------
E|-------------------------------------------------------------------

Right Before Guitar Solo(do this when the Guitar is hitting dead notes)
G|------------------
D|------------------
A|-12-12-12-12-14-14
E|------------------

Guitar Solo
G|------------------------
D|------------------------ (x2)
A|-------------55555------
E|-00000-22222-------55554

Bridge
G|----------------------        G|---------------------------
D|---------------------- (x3)   D|---------------------------
A|-------------0-0---2-2        A|-------------0-0---2-2-0-2/
E|-0-0---2-2------------        E|-0-0---2-2-----------------

G|--------------------------------------------------------------
D|-----------------7-7-7-7/9-9-9-9----------------7----77777777
A|-7-7-7-7-9-9-9-9-----------------7-7-7-7-9-9-9-9--------------
E|--------------------------------------------------------------

Chorus
G|----------------------------------------------------------------------
D|---------------------------------------------------------------------- (x3)
A|-----2/7--------------2/7--------------2/7------------2/7-9/12-11-9-11
E|-0-0-----5-5-4-5--0-0-----5-5-4-5--0-0-----5-5-4-5--0-----------------

G|---------------------------------------------------------------------
D|---------------------------------------------------------10-10-10-9- (x2)
A|-7-7-7-75-5-5-5-0-0-0-0-0-0-0-2/7-7-7-75-5-5-5-0-0-0-0/------------
E|---------------------------------------------------------------------

G|------------------------------------
D|-------------------------10-10-10-9 (x6)
A|-7-7-7-75-5-5-5-0-0-0-0/-----------
E|------------------------------------

End On
A|-7-





Summer


Intro
g-----------------------------------------------------------
d-----------------------------------------------------------
a--5-------------------55555555-----------------------------
e-------7----3----5----------------777777777333333335555555-

Riff1
g--------------------------------------------------
d--------------------------------------------------
a-55555555--------------77777777-------------------
e--------------77777777--------------33333333------

Riff2
g------------------------------------------
d------------------------------------------
a--55555555--------------------------------
e---------------777777773333333355555555---

Riff1

Riff3
g---------------------------------
d---------------------------------
a-------------55555---------------
e-0----3------------777773333333--

Chorus
g-----------------------------
d-----------------------------
a--55555----------------------
e-----------777773333355555---

Riff2
Riff1

then....
g------------------------
d------------------------
a--55555-----------------
e----------777773333333--

Chorus






Handle this


Intro.
------------------------------------------------------------------------------
------------------------------------------------------------------------------
-55-----------------55--------------------------------------------------------
-----55--33333333------55---33333333------------------------------------------
                                                                              

Verses
------------------------------------------------------------------------------
------------------------------------------------------------------------------
--555555555555----------------------------------------------------------------
---------------555555555555-777777777777-3333333333333333---------------------
                                                                              

Chorus
------------------------------------------------------------------------------
------------------------------------------------------------------------------
--5555--------------------------5555------------------------------------------
-------5555-7777-3333-0000-3333------5555-7777-3333---------------------------
                                                                              
Riff Played During The Solo
--------------------------------------------------------------------------
--------------------------------------------------------------------------
--5555----------------------5555------------------------------------------
-------5555-7777-3333--3333------5555-7777-3333---------------------------

Interlude 
------------------------------------------------------------------------------
------------------------------------------------------------------------------
-5555555555555--55--55--------------------------------------------------------
------------------------55555555-00000000-33333333-33333333333333333----------
("You're givin' up") 

Outro.
------------------------------------------------------------------------------
------------------------------------------------------------------------------
-55555555-------------------555-----------------------------------------------
----------55555555-33333333-----5555------------------------------------------
                                                                              

	         Intro.
		Verse
		Chorus	
		Intro.
		Verse
		Chorus
		Solo Riff
		Interlude
		Chorus
		Outro






Crazy Amanda Bunkface
Drop-d tuning 
VERSE 1 (No bass)

CHORUS
G----------------------------|
D----------------------------|
A--3-----------5--5--555555--| (x4)
D------5---5-----------------|

AFTER CHORUS
G-------------------------------------|
D-------------------------------------|
A------------------33333333333--555---| (x2)
D--5-5-5-4-5-55555--------------------|

G-----|
D-----|
A-----|
D--5/-|

VERSE 2
Only guitar for a bit, then
G---------------------------------------|
D---------------------------------------|
A------------00000000-22222222-33333333-| (x1)
D--55555555-----------------------------|

G---------------------------------------|
D---------------------------------------|
A------------------------------33333333-| (x1)
D--55555555--44444444-33333333----------|

G---------------------------------|
D---------------------------------|
A---------------------------------| (x1)
D--55555555--44444444---3--33--33-|

CHORUS

BREAK
G--------------------------------------------------|
D--------------------------------------------------|
A--------------------------------------------------| (x4)
D--0-2-0--2----0-2-0--2----0-2-0--2---0-2-0----4-5-|

G---------------------------------|
D---------------------------------|
A---------------------------------|
D--4-5---4-5---4-5---55555555555--|

("I'm on my way...")
G-----------------------------------|
D-----------------------------------|
A-----------------------------------| (x4)
D-0000000-22222222-55555555-7777777-|

("See that through...")
G---------------|
D---------------|
A---------------|
D-7777777777777-|

LAST CHORUS
G----------------------------|
D----------------------------|
A--5-----------7--7--777777--| (x4)
D------7---7-----------------|

END ON
G-----|
D-----|
A-----|
D--7/-|





All she’s got

Verse 1  (x2)     on the second time play the last E and F# just once
G----------------------------------------------------------|
D----------------------------------------------------------|
A----------------------22222222----------------------------|
E----00000000-22222222-----------44444444-00000000-22222222|

Chorus  (x8)
G------------------------------------|
D------------------------------------|
A-22222222---------------------------|
E----------00000000-22222222-00000000|

Verse 2                 (x4)                 (x1)
G------------------------------------|-------------------------|
D------------------------------------|-------------------------|
A-22222222---------------------------|------------2222---------|
E----------44444444-00000000-22222222|-0000--2222------4444-0-2|

Chorus x7

Bridge
G------------------------------------------------------------------|
D------------------------------------------------------------------|
A----------------------------2222---------------2222-----------7777|
E-44444444-22222222-00000000------0000-22222222------0000-2222-----|

Bridge continued
G--------------------------------------|
D--------------------------------------|
A-2222---------------2222--------------|
E------0000-22222222------0000-22222222|

Chorus x4
End on 

G|-------|
D|-------|
A|-2-----|
E|-------|







Heart Attack

intro
g-----------------
d-----------------
a-2/9--11--13-----
e-----------------

verse part 1 (x2)
g-----------------
d-----------------
a--9--11--13------
e-----------------

part 2 (x2)                     last notes on 2nd time

g-------------------------------*------
d-------------------------------*------
a--22222-444444-666666-888888---*-8-8-8
e-------------------------------*------

chorus (x4)

g-------------------------------
d-------------------------------
a--222222-444444----------------
e----------------4444444444444--

after chorus- play until verse

g-------------------------------
d-------------------------------
a-4-4-4p2h4-4-4-4p2h4-2-2-2p0h2-2-2-2p0h2
e-------------------------------

verse part 1 x2
part2 x2
chorus x4

bridge play until deryck starts singing

g------------------------------------------
d------------------------------------------
a-2-2-pause--24-22-00-22-00-2h4p2-22-00-22-00-2h4p2
e------------------------------------------

intro x1
g-------------------------------
d-------------------------------
a-2/9--11--13-------------------
e-------------------------------
verse #3    summer evenings.......

g------------------------------------
d------------------------------------
a-222222-4444444---------------------
e---------------4444444-2222222------

can't make time............
g------------------------------------
d------------------------------------
a----------------------2----2-2-2-2--
e4444444444-222222222-----------------

chorus x4

ending is the same as the bridge

Pain For Pleasure

          Intro (after guitar intro)
          G|-------------------------------------------|
          D|-------------------------------------------|
          A|--6------6-4------4-2------2-1------1-4-6--|
          E|-------------------------------------------|
          
          Pre-chorus 	
          
          1st time
          G|------------------------------------|
          D|------------------------------------|
          A|–-66------44------22------11--------|
          E|-------------------------------1-4--|
          
          2nd time
          G|-------------------------------|
          D|-------------------------------|
          A|–-66------44------22------11---|
          E|-------------------------------|
          
          Chorus (play 6x)
      G|----------------------------------------------------------------------|
      D|----------------------------------------------------------------------|
      A|–-6-6-6-6-6-6-6-6--4-4-4-4-4-4-4-4--2-2-2-2-2-2-2-2–-1-1-1-1-1-1-1-1--|
      E|----------------------------------------------------------------------|
          
          Post chorus (play 1x)
          G|---------------------------|
          D|---------------------------|
          A|–-6------9-6---6------2-4--|
          E|---------------------------|
          
          Outro (play 1x)
          G|------------------------------------------------------|
          D|------------------------------------------------------|
          A|–-6------9-6---6------2-4--2-4--2-4------6-----6-4-6--|
          E|------------------------------------------------------|
Suggest correction
What's this?
You can suggest a correction to this tab. Community and Mods will review your correction and vote to approve or reject it.
comments
print report bad tab
6 comments total. Showing first comments.
0 reply
RATM_timc 169 wrote on May 3 2003, 12:00 am

some1 has a little too much free time

0 reply
RATM_timc 169 wrote on May 3 2003, 12:00 am

some1 has a little too much free time

0 reply
RATM_timc 169 wrote on May 3 2003, 12:00 am

some1 has a little too much free time

guest
You may want to rate the tab now too:
select rating
Please do not post tabs as comments. Select "correction" instead!