Oops, an error
Loading. Please wait.

All Messed Up Bass Tab

version 1
version 1

Whole song

852 views 3 this week
no commentswrite comment
1 2 3 4 5
please rate
add to favorites
launch autoscroll
font size
0
reset
guitar tuner
Autoscroll
slow
fast
+/-
esc
set tempo
stop
Help us to improve Ultimate-Guitar.com Take our survey!
×
Artist : Sum 41
Song   : All Messed Up
Tuning : Standard

Intro:
G|---------------------------|--------------------------------------|
D|---------------------------|---------111----222----444------------|
A|--222----222---------------|--222---------------------/2-22222222-|
E|----------------000----222-|--------------------------------------|

Verse:
G|------------------|3x|-------------------|
D|------------------|  |-------------------|
A|----------2222222-|  |-------------------|
E|--55--00----------|  |--55--00--22222222-|

Chorus:
G|----------------------------------------------------|2x
D|----------------------------------------------------|
A|----------222222------------------2222222--00000----|
E|--00--55----------000000--555555-----------------22-|

After Chorus:
G|-------------------------|
D|---------111-------------|
A|--222--------------------|
E|----------------000----2-|

Verse 2:
G|--------------------|3x|-------------------|
D|--------------------|  |-------------------|
A|------------222-222-|  |-------------------|
E|--555--000----------|  |--55--00--22222222-|

Chorus:
G|----------------------------------------------------|2x
D|----------------------------------------------------|
A|----------222222------------------2222222--00000----|
E|--00--55----------000000--555555-----------------22-|

After Chorus:
G|-----------|2x|------------------|
D|-----------|  |------------------|
A|--00000----|  |------------------|
E|--------22-|  |-2222222222222222-|

Bridge:
G|---------------------------------|
D|--222222-------------------------|
A|----------444444----------222222-|
E|------------------555555---------|

G|-------------------------------------------|
D|-------------------------------------------|
A|-00--222222-00--222222-00-2222222222222222-|
E|-------------------------------------------|

Bridge (2):
G|--4-2---2-1---4-|2x
D|------2-----2---|
A|----------------|
E|----------------|

Bridge (3):
G|------------------|3x|------------------------|
D|------------------|  |------------------------|
A|----------2222222-|  |------------------------|
E|--55--00----------|  |--55--00--2-2-2-2-2-2-2-|

Chorus:
G|----------------------------------------------------|2x
D|----------------------------------------------------|
A|----------222222------------------2222222--00000----|
E|--00--55----------000000--555555-----------------22-|

Outro:
G|---------------------------|--------------------------------------|
D|---------------------------|---------111----222----444------------|
A|--222----222---------------|--222---------------------/2-22222222-|
E|----------------000----222-|--------------------------------------|
Suggest correction
What's this?
You can suggest a correction to this tab. Community and Mods will review your correction and vote to approve or reject it.
comments
We did not receive enough feedback on this tab! Please rate:
print report bad tab
1 2 3 4 5
guest
You may want to rate the tab now too:
select rating
Please do not post tabs as comments. Select "correction" instead!