Oops, an error
Loading. Please wait.

All Messed Up Tab

version 2
version 2

Whole song

9,002 views 9 this week
7 commentsread comments
1 2 3 4 5
x 11
add to favorites
launch autoscroll
font size
0
reset
how to read this tab
guitar tuner
Autoscroll
slow
fast
+/-
esc
set tempo
stop
Help us to improve Ultimate-Guitar.com Take our survey!
×
Tuning
E A D G B E
|--------------------------|   . = palm mute
|--Sum 41 - All Messed Up--|   / = slide
|--------------------------|

Some of the strumming is not correct so just fill it in when you play.

Standard Tuning

[Intro]
|------77--------77--------77--------77----|
|--------77--------77--------77--------77--|
|--444-------444---------------------------|
|--444-------444-------222-------444-------|
|--222-------222-------222-------444-------|
|----------------------000-------222-------|

|------77--------77--------77--------77-------------------|
|--------77--444---77--555---77--777---77-----------------|
|--444-------333-------444-------666-------/2-2222222222--|
|--444-------111-------222-------444-------/2-2222222222--|
|--222-------------------------------------/4-4444444444--|
|---------------------------------------------------------|
                                              ......
[Verse]
|-------------------|       |---------------------------|
|-------------------| (x3)  |---------------------------|
|----------4444444--|       |---------------------------|
|--77--22--4444444--|       |--77--22--4444444444444444-|
|--77--22--2222222--|       |--77--22--4444444444444444-|
|--55--00-----------|       |--55--00--2222222222222222-|
                                       ............
[Chorus]
|----------------------------------------------------|
|----------------------------------------------------| (x2)
|----------444444------------------4444444--22222----|
|--22--77--444444--222222--777777--4444444--22222-44-|
|--22--77--222222--222222--777777--2222222--00000-44-|
|--00--55----------000000--555555-----------------22-|

[Post-chorus]
|------77--------77--------77-------|
|--------77--444---77--------77-----|
|--444-------333--------------------|
|--444-------111-------222-------4--|
|--222-----------------222-------4--|
|----------------------000-------2--|

[Verse]
|---------------------|     |--------------------------|
|---------------------|(x3) |--------------------------|
|------------444-444--|     |--------------------------|
|--777--222--444-444--|     |--77--22--444444444444444-|
|--777--222--222-222--|     |--77--22--444444444444444-|
|--555--000-----------|     |--55--00--222222222222222-|
   ..   ..   ..  ..                    ...........
  
[Chorus]
|----------------------------------------------------|
|----------------------------------------------------|  (x2)
|----------444444------------------4444444--22222----|
|--22--77--444444--222222--777777--4444444--22222-44-|
|--22--77--222222--222222--777777--2222222--00000-44-|
|--00--55----------000000--555555-----------------22-|

[Post-Chorus]
|-----------|     |--------------|
|-----------| (x2)|--------------|
|--22222----|     |--------------|
|--22222-44-|     |-444444444444-|
|--00000-44-|     |-444444444444-|
|--------22-|     |-222222222222-|

i dunno what this part is called but its about 1:16 into the song
|---------------------------------|     |-------------------------------------------|
|--555555-------------------------|(x4) |-------------------------------------------|
|--444444--666666----------444444-|     |-22--444444-22--444444-22--444444444444444-|
|--222222--666666--777777--444444-|     |-22--444444-22--444444-22--444444444444444-|
|----------444444--777777--222222-|     |-00--222222-00--222222-00--222222222222222-|
|------------------555555---------|     |-------------------------------------------|

|--------------------------|
|--------------------------|  (x4)
|--44----44-2-44----44-2-4-|
|--44-2--44-2-44-2--44-2-4-|
|--22-2--22-0-22-2--22-0-2-|
|-----0----------0---------|

|-------------------|      |------------------------|
|-------------------| (x3) |------------------------|
|----------4444444--|      |------------------------|
|--77--22--4444444--|      |--77--22--4-4-4-4-4-4-4-|
|--77--22--2222222--|      |--77--22--4-4-4-4-4-4-4-|
|--55--00-----------|      |--55--00--2-2-2-2-2-2-2-|                                  

Then play the chorus again and then the whole intro

[Chorus]
|----------------------------------------------------|
|----------------------------------------------------|  (x2)
|----------444444------------------4444444--22222----|
|--22--77--444444--222222--777777--4444444--22222-44-|
|--22--77--222222--222222--777777--2222222--00000-44-|
|--00--55----------000000--555555-----------------22-|

[Intro]
|------77--------77--------77--------77----|
|--------77--------77--------77--------77--|
|--444-------444---------------------------|
|--444-------444-------222-------444-------|
|--222-------222-------222-------444-------|
|----------------------000-------222-------|

|------77--------77--------77--------77-------------------|
|--------77--444---77--555---77--777---77-----------------|
|--444-------333-------444-------666-------/2-2222222222--|
|--444-------111-------222-------444-------/2-2222222222--|
|--222-------------------------------------/4-4444444444--|
|---------------------------------------------------------|
                                              ......



=-=-=-=-=-=-=-=-=-=-=-=-=-=-=-=-=-=-=-=-=-=-=-=-=-=-=-=-=-=-=-=-=-=-=-=-=-=-=-=-=
Suggest correction
comments
print report bad tab
7 comments total. Showing first comments. show 1 bad comment
+1 reply
mr-punk-rocker 10 Jun 02, 2007 10:51 AM

great tab, it sounds perfect when i play it, thanks

+1 reply
sum41rules 10 Jun 21, 2007 12:51 PM

this is awesum im speechless...
*****!
well, not quite!:)

x- sum 41 rules -x

guest
You may want to rate the tab now too:
select rating
Wanna post a correction for this tab? Suggest correction