Oops, an error
Loading. Please wait.

All Shes Got Tab

version 1
version 1

Solo

Whole song

Interactive

1,231 views 1 this week
5 commentsread comments
1 2 3 4 5
accurate
x 7
add to favorites
launch autoscroll
font size
0
reset
how to read this tab
guitar tuner
Autoscroll
slow
fast
+/-
esc
set tempo
stop
Help us to improve Ultimate-Guitar.com Take our survey!
×
From:Andrew Summers
Band:Sum 41
Album:All Killer No Killer
Track:11

Im back again, I saw that there was no tab for this song, so I decided to do the solo, coz I was bored.  Yet another cool song from Sum 41, the solos pretty easy too.

E-----------------------------------------------------------
B-----------------------------------------------------------
G--8-9-11-11-9-8-9-8--9-8---8-9-11-11-9-8-9-8--9-8----------
D-------------------9-----9------------------9-----9--------
A-----------------------------------------------------------
E-----------------------------------------------------------


E--7-9-11-11-9-7-7-9-11-11-9-7--7--7---7---7----------------
B---------------------------------7--7---7---7--------------
G---------------------------------------------------4-------
D---------------------------------------------------4-------
A---------------------------------------------------2-------
E-----------------------------------------------------------
Suggest correction
What's this?
You can suggest a correction to this tab. Community and Mods will review your correction and vote to approve or reject it.
comments
print report bad tab
5 comments total. Showing first comments.
0 reply
MuDvAyNeROCK 0 wrote on February 20 2002, 12:00 am

good job man

-1 reply
Babaca 78 wrote on March 10 2002, 12:00 am

its close, but not perfect. the one part of it goes like this:

e|
B|-8-9-11-11-8-9--8-9--8-9
G|--------------------8----8

u had almost all of it except it goes 8-9-8, not 8-9-9

0 reply
Peavey 14 wrote on March 14 2002, 12:00 am

so F***ing close

guest
You may want to rate the tab now too:
select rating
Please do not post tabs as comments. Select "correction" instead!