Oops, an error
Loading. Please wait.

Always Bass Tab

version 1
version 1

Whole song

Interactive

2,116 views 1 this week
no commentswrite comment
1 2 3 4 5
excellent!
x 1
add to favorites
launch autoscroll
font size
0
reset
guitar tuner
Tab Pro tools
  • play this tab
  • loop segment
  • change instrument
  • show fretboard
  • metronome
Autoscroll
slow
fast
+/-
esc
set tempo
stop
Contributor
Sum 41
Always
Complicity
2009
Submitted by: paramore_fans@yahoo.com

Key: C

Tuning: Standard EADG


Chorus: "Calling your name out"
G|-----------------|-----------------|
D|-----------------|-----------------|
A|-0-0-0-0-0-0-0-0-|-----------------| x2
E|-----------------|-1-1-1-1-1-1-1-1-|

 "always"
G|-----------------|-----------------|
D|-----------------|-----------------|
A|-3-3-3-3-3-3-3-3-|-----------------|
E|-----------------|-0-0-0-0-0-0-0-0-|

"know that I can feel"
G|-----------------|-----------------|
D|-----------------|-----------------|
A|-0-0-0-0-0-0-0-0-|-----------------| x2
E|-----------------|-1-1-1-1-1-1-1-1-|

 "always"
G|-----------------|-----------------|
D|-----------------|-----------------|
A|-3-3-3-3-3-3-3-3-|-----------------|
E|-----------------|-0-0-0-0-0-0-0-0-|


Interlude:
G|-------------|-------------|------------------------4-5-9-|
D|-------------|-------------|------------------7-7-5-------|
A|-------------|-------------|--------------7-7-------------| x4
E|-1--1--1-1-1-|-3--3--3-3-3-|-5--5--5-5-5------------------|


(Repeat Chorus and Interlude)


Pre Outro:
G|-----------------|-----------------|
D|-----------------|-----------------|
A|-0-0-0-0-0-0-0-0-|-----------------|
E|-----------------|-1-1-1-1-1-1-1-1-|
         x2                x2

G|-----------------|-----------------|
D|-----------------|-----------------|
A|-3-3-3-3-3-3-3-3-|-----------------|
E|-----------------|-3-3-3-3-3-3-3-3-|
         x2                x2


Outro:" If you stay then I won't go"
G|-----------------|-----------------|
D|-----------------|-----------------|
A|-0-0-0-0-0-0-0-0-|-----------------|
E|-----------------|-1-1-1-1-1-1-1-1-|
         x2                x2

G|-----------------|-----------------|
D|-----------------|-----------------|
A|-3-3-3-3-3-3-3-3-|-----------------|
E|-----------------|-3-3-3-3-3-3-3-3-|

         x2                x2
G|-----------------|-----------------|
D|-----------------|-----------------|
A|-0-0-0-0-0-0-0-0-|-----------------|
E|-----------------|-1-1-1-1-1-1-1-1-|
         x2                x2

G|-----------------|-----------------|
D|-----------------|-----------------|
A|-3-3-3-3-3-3-3-3-|-----------------|
E|-----------------|-3-3-3-3-3-3-3-3-|
         x2                x2


G|---
D|---
A|---
E|-5-
comments
We did not receive enough feedback on this tab! Please rate:
print report bad tab
1 2 3 4 5
I want to post or [tab]
guest
You may want to rate the tab now too:
select rating
Please do not post tabs as comments. Select "correction" instead!