Oops, an error
Loading. Please wait.

Always Chords

version 1
version 1

Whole song

Interactive

16,542 views 15 this week
no commentswrite comment
1 2 3 4 5
x 11
add to favorites
launch autoscroll
font size
0
reset
transpose
0
reset
display chords
guitar tuner
Autoscroll
slow
fast
+/-
esc
set tempo
stop
Help us to improve Ultimate-Guitar.com Take our survey!
×
Sum 41
Always
Greatest Hits
2008 Aquarius Records
Submitted by: paramore_fans@yahoo.com

To listen to the song, http://fr.youtube.com/watch?v=wh9_j_RRahw

Key: C

Tuning: Standard EADGBe

Chords used:
Am - x02210
F -  133211
C -  x32010
G -  320003
Em - 022000


Intro:
Am         F
Always The whole
way through
Am        F
I'll stay true


Verse 1:
Am
Calling your name out
             F
If you could only
hear me now
           Am
Wish I got never
said so loud
The choice that
      F
would never be without
I'll be with
    C
you always (always)
Em
Know that all
these words are
Am
know that i can feel
            F
something I never
thought was real
I'll be with you
C
always (always)
Em
Know that all these
words are true


Interlude 1: F--G--Am-- x4

Guitar 2:
       F             G                   Am
e|-------------|-------------|-------------------------|
B|-5--5--5h6p5-|-5--5--5h6p5-|-5--5--5h6p5-------------|
G|-5--5--5-----|-5--5--5-----|-5--5--5------5--5--7--7-|
D|-3--3--3-----|-5--5--5-----|-7--7--7-----------------|
A|-------------|-------------|-------------------------|
E|-------------|-------------|-------------------------|

Piano 1:
e|-5--5--5--5--5--5--5--5-|
B|------------------------|
G|------------------------|
D|------------------------|
A|------------------------|
E|------------------------|

Piano 2:
   F   G      Am
e|-5-|-3-|-0---------|
B|---|---|----1--3-1-|
G|---|---|-----------|
D|---|---|-----------|
A|---|---|-----------|
E|---|---|-----------|


(Repeat Verse 1)


Interlude2: F--G--Am-------| x8,
C---G---Am---F----C---G----|


Piano 2:
                C                                  G
e|---------1-1-1-1-0-0-0-0---------|---------1-1-1-1-0-0-0-0---------|
B|-1-1-1-1-----------------3-3-3-3-|-0-0-0-0-----------------3-3-3-3-|
G|---------------------------------|---------------------------------|
D|---------------------------------|---------------------------------|
A|---------------------------------|---------------------------------|
E|---------------------------------|---------------------------------|

                Am                                  F
e|---------1-1-1-1-0-0-0-0---------|---------1-1-1-1-0-0-0-0---------|
B|-1-1-1-1-----------------3-3-3-3-|-1-1-1-1-----------------3-3-3-3-|
G|---------------------------------|---------------------------------|
D|---------------------------------|---------------------------------|
A|---------------------------------|---------------------------------|
E|---------------------------------|---------------------------------|


Verse 2:
Am
  If you stay
then I won't go
F
  If you go I'll
always be there
C
  I don't care
G
  All I know
Am
  If you stay then
I won't go
F
  If you go I'll
always be there
C
  I'll be there
I don't care
        G
I don't care
Cause always
      A(hold)
I know
Suggest correction
comments
print report bad tab
guest
You may want to rate the tab now too:
select rating
Wanna post a correction for this tab? Suggest correction