Oops, an error
Loading. Please wait.

Always Tab

version 1
version 1

Whole song

Interactive

11,282 views 6 this week
2 commentsread comments
1 2 3 4 5
please rate
add to favorites
launch autoscroll
font size
0
reset
how to read this tab
guitar tuner
Autoscroll
slow
fast
+/-
esc
set tempo
stop
Help us to improve Ultimate-Guitar.com Take our survey!
×
New song by Sum 41 off their Best Of Album coming out soon.
I haven't got any strumming in, You can figure it out for yourself.
It's an easy fun paced song.

Verse 1

Calling your name out...
---------------------------------------------------|
---------------------------------------------------|
---------------------------------------------------|
--7--3--7--3---------------------------------------|
--7--3--7--3---------------------------------------|
--5--1--5--1---------------------------------------|


Chorus

I'll be with you always..
---------------------------------------------------|
---------------------------------------------------|
--5------------------------------------------------|
--5--3--7--3---------------------------------------|
--3--5--7--3---------------------------------------|
-----3--5--1---------------------------------------|

---------------------------------------------------|
---------------------------------------------------|
--5------------------------------------------------|
--5--3--3-3--3-5-5--5-7-7--------------------------|
--3--5--3-3--3-5-5--5-7-7--------------------------|
-----3--1-1--1-3-3--3-5-5--------------------------|

---------------------------------------------------|
---------------------------------------------------|
---------------------------------------------------|
--3-3--3-5-5--5-7-7--------------------------------|
--3-3--3-5-5--5-7-7--------------------------------|
--1-1--1-3-3--3-5-5--------------------------------|


Verse 2

Calling your name out...
---------------------------------------------------|
---------------------------------------------------|
---------------------------------------------------|
--7--3--7--3---------------------------------------|
--7--3--7--3---------------------------------------|
--5--1--5--1---------------------------------------|


Chorus

I'll be with you always..
---------------------------------------------------|
---------------------------------------------------|
--5------------------------------------------------|
--5--3--7--3---------------------------------------|
--3--5--7--3---------------------------------------|
-----3--5--1---------------------------------------|

---------------------------------------------------|
---------------------------------------------------|
--5------------------------------------------------|
--5--3--3-3--3-5-5--5-7-7--------------------------|
--3--5--3-3--3-5-5--5-7-7--------------------------|
-----3--1-1--1-3-3--3-5-5--------------------------|

---------------------------------------------------|
---------------------------------------------------|
---------------------------------------------------|
--3------------------------------------------------|
--3------------------------------------------------|
--1------------------------------------------------|


Bridge


---------------------------------------------------|
---------------------------------------------------|
--5----------5-------------------------------------|
--5----3-----5----5--------------------------------|
--3----3-----3----5--------------------------------|
-------1----------3--------------------------------|

Rock Out Bit
---------------------------------------------------|
---------------------------------------------------|
--------5------------------------------------------|
--7--3--5--5---------------------------------------|
--7--3--3--5---------------------------------------|
--5--1-----3---------------------------------------|


If you stay then I won't go...
---------------------------------------------------|
---------------------------------------------------|
--------5------------------------------------------|
--7--3--5--5---------------------------------------|
--7--3--3--5---------------------------------------|
--5--1-----3---------------------------------------|


If you stay then I won't go...
---------------------------------------------------|
---------------------------------------------------|
--------5------------------------------------------|
--7--3--5--5---------------------------------------|
--7--3--3--5---------------------------------------|
--5--1-----3---------------------------------------|

Fade
---------------------------------------------------|
---------------------------------------------------|
---------------------------------------------------|
--7------------------------------------------------|
--7------------------------------------------------|
--5------------------------------------------------|
Suggest correction
Give kudos to tab author, rate the tab!
1 2 3 4 5
comments
print report bad tab
2 comments total.
0 reply
guitarskate37 50 wrote on December 4 2008, 10:09 pm

just cuious.. when did they release this song?? I just checked their myspace a min ago and heard this song and it says 12/9/08 so idk when they posted it..or you for that matter.

0 reply
Jacobjc 10 wrote on January 4 2009, 02:40 pm

they released it not too long ago but I think it was only released in Japan. You can listen to it on youtube.

guest
You may want to rate the tab now too:
select rating
Please do not post tabs as comments. Select "correction" instead!