Oops, an error
Loading. Please wait.

Always Tab

version 2
version 2

Whole song

Interactive

5,577 views 1 this week
1 commentread comment
1 2 3 4 5
excellent!
x 3
add to favorites
launch autoscroll
font size
0
reset
how to read this tab
guitar tuner
Autoscroll
slow
fast
+/-
esc
set tempo
stop
Help us to improve Ultimate-Guitar.com Take our survey!
×
Author
-------------------------------------------------------------------------------
                             Always - Sum 41
-------------------------------------------------------------------------------
Tabbed by: Tobias Stifler

Tuning: EADGBe

Verse 1 (Piano) (1x) (0:02 - 0:12)

e|--------------------|
B|--------------------|
G|--------------------|
D|-----7---2-0-----7-3|
A|-----7-3-----3-----3|
E|-3-5-5---------5---1|

Verse 2

Guitar 1 (2x) (0:14 - 0:24)

e|--------------|
B|--------------|
G|--------------|
D|-777777-333333|
A|-777777-333333|
E|-555555-111111|

Piano (x) (0:14 - 0:24)

e|----------|
B|----------|
G|----------|
D|-777777777|
A|----------|
E|----------|

Chorus (1x) 

Guitar (0:25 - 0:29)

e|--------------|
B|--------------|
G|-555555-------|
D|-555555-222222|
A|-333333-222222|
E|--------000000|


Piano 1 (x) (0:25 - 0:29)

e|----------|
B|----------|
G|----------|
D|----------|
A|-777777777|
E|----------|

Verse 2 (1x) (0:30 - 0:34)

Chorus (1x) (0:35 - 0:40)

Interlude 1

Guitar 1 (4x) (0:40 - 1:00) (First time clean, second third and fourth with distortion)

e|----------------------|
B|----------------------|
G|----------------------|
D|-33-3/55-5/77-77-77-77|
A|-33-3/55-5/77-77-77-77|
E|-11-1/33-3/55-55-55-55|

Guitar 2 (4x) (0:40 - 1:00)

e|------------------------|
B|-5-5-6-5-5-5-6-5-5-5-5-5|
G|-x-x-x-x-x-x-x-x-x-x-x-x|
D|-2-2/3\2-2-2/3\2-2-2-2-2|
A|------------------------|
E|------------------------|

Piano 1 (x) (0:40 - 1:00)

e|----------|
B|----------|
G|----------|
D|-777777777|
A|----------|
E|----------|

Piano 2 (4x) (0:40 - 1:00)

e|------------|
B|------------|
G|------------|
D|---7-5-3----|
A|-3-------5-3|
E|------------|


Verse 2 (2x) (1:01 - 1:11)

Chorus (1x) (1:12 - 1:17)

Verse 2 (1x) (1:17 - 1:22)

Chorus (1x) (1:22 - 1:27)

Interlude 2

Guitar 1 (1:28 - 1:35)

e|-------------------------|
B|-------------------------|
G|-------------------------|
D|-33-3/55-5/77-77-77-77-3~|
A|-33-3/55-5/77-77-77-77-3~|
E|-11-1/33-3/55-55-55-55-1~|

Guitar 2 (1:28 - 1:33)

e|------------------------|
B|-5-5-6-5-5-5-6-5-5-5-5-5|
G|-x-x-x-x-x-x-x-x-x-x-x-x|
D|-2-2/3\2-2-2/3\2-2-2-2-2|
A|------------------------|
E|------------------------|

Piano 1 (x) (0:40 - 1:35)

e|----------|
B|----------|
G|----------|
D|-777777777|
A|----------|
E|----------|

Piano 2 (0:40 - 1:35)

e|----------------|
B|----------------|
G|----------------|
D|---7-5-3--------|
A|-3-------5-3-5-3|
E|----------------|

Outro (1:35 - 3:08)

Piano 1 (x) (1:35 - 2:04)

e|---------------------------------------------------------------------------|
B|---------------------------------------------------------------------------|
G|---------------------------------------------------------------------------|
D|-777777--------------------------------------------------------------------------|
A|---------------------------------------------------------------------------|
E|---------------------------------------------------------------------------|

Piano 2 (1:35 - 1:54)

e|------------------------------------------------------------|
B|------------------------------------------------------------|
G|------------------------------------------------------------|
D|-5-2-----7-5-2-----7777-5555-2222-------7777-5555-2222------|
A|-----3-5-------3-5----------------33-55----------------33-55|
E|------------------------------------------------------------|

(1:55 - 2:04)

e|----------------------------------------|
B|----------------------------------------|
G|----------------------------------------|
D|----------------------------------------|
A|-3333-8888-7777-5555-2222-8888-7777-5555|
E|----------------------------------------|

When Distortion Start (3x) (2:04 - 3:07)

e|--------------------------------------------------------------------------------|
B|--------------------------------------------------------------------------------|
G|--------------------------------------------------------------------------------|
D|--------------------------------------------------------------------------------|
A|-3333-8888-7777-5555-3333-8888-7777-5555-3333-8888-7777-5555-2222-8888-7777-5555|
E|--------------------------------------------------------------------------------|

Guitar
     
(1:43)

e|-5~|
B|-5~|
G|-5~|
D|-7~|
A|-7~|
E|-5~|

(1:48)

e|-1~|    
B|-1~|    
G|-2~|    
D|-3~|    
A|-3~|     
E|-1~|    

(1:53 - 2:04)  

e|--------------|
B|--------------|
G|-555555-------|
D|-555555-555555|
A|-333333-555555|
E|--------333333|

(2:05 - 3:07) (3x)   
   
e|----------------------------|
B|----------------------------|
G|---------------555555-------|
D|-777777-333333-555555-555555|
A|-777777-333333-333333-555555|
E|-555555-111111--------333333|

(3:08)

e|---|
B|---|
G|---|
D|-7~|
A|-7~|
E|-5~|
 
| /  slide up
| \  slide down
| ~  vibrato
===============================================================================
Suggest correction
Give kudos to tab author, rate the tab!
1 2 3 4 5
comments
print report bad tab
1 comment total.
0 reply
duyofcydonia 10 wrote on April 9 2009, 03:53 am

This is great, I like it. It may or may not be how Deryck plays it but it doesn't sound funky to me. Thanks for getting the parts in the background and transcribing the piano :]

guest
You may want to rate the tab now too:
select rating
Wanna post a correction for this tab? Suggest correction