Oops, an error
Loading. Please wait.

Angels With Dirty Faces Bass Tab

version 2
version 2

Whole song

Interactive

266 views 9 this week
no commentswrite comment
1 2 3 4 5
please rate
add to favorites
launch autoscroll
font size
0
reset
guitar tuner
Tab Pro tools
  • play this tab
  • loop segment
  • change instrument
  • show fretboard
  • metronome
Autoscroll
slow
fast
+/-
esc
set tempo
stop
Contributor
Difficulty
Tuning
novice
D G C F A D
Artist: Sum 41.
Title: Angels with dirty faces.
Drop d.

Intro (around 0:20)
|-------------------------------------------------------------------|
|-------------------------------------------------------------------|
|------8-8-8-8-------8-8-8-8----------10-10-10-10---------7-7-7-7-8-|
|-0-0-----------0-0-----------8-8-8-8-------------7-7-7-7-----------|

|---------------------------------------------------------|
|---------------------------------------------------------|
|---------8-8-----------------10-10-10-10---------7-7-7-7-|
|-0-0-0-0-----0-0-0-0-8-8-8-8-------------7-7-7-7---------|

Intro 2.
|------|    |-------|
|------| x6 |-------|
|------|    |-------|
|-0000-|    |-00532-|

Verse.
|-----------------------------------|
|-----------------------------------|
|---------3-2-2-2-2---------3-3-3-3-|
|-0-0-0-0-----------3-3-3-3---------|

Pre-chorus.
|--------------------------------------|
|--------------------------------------|
|--------------------------------------|
|-8--8-8-8-8-8-8-10--10-10-10-10-10-10-|

Chorus.
|---------------------------------------------------------------|
|---------------------------------------------------------------|
|---------------------------------3-3-3-3-3-3-3-5-5-3-3-2-2-0-0-|
|-0-0-0-0-0-0-0-0-3-3-3-3-3-3-3-3-------------------------------|

Post-chorus.
|--------------------------------------|
|--------------------------------------|
|--------------------------------------|
|-0---2---3---5---0---2---3---55555555-|

Bridge.
|--------------------------------------------------------------|
|--------------------------------------------------------------|
|--------------------------------------------------------------|
|-0-----000-----000-----000-----000000000000000000000000000000-|

Outro.
|-----------------------------------------------|
|-----------------------------------------------|
|-----8-8-8-8---------8-8-8-8---------8-8-8-8---|
|-0-0---------0-0-0-0---------0-0-0-0---------0-|

Comment and rate!
comments
We did not receive enough feedback on this tab! Please rate:
print report bad tab
1 2 3 4 5
I want to post or [tab]
guest
You may want to rate the tab now too:
select rating
Please do not post tabs as comments. Select "correction" instead!