Oops, an error
Loading. Please wait.

Angels With Dirty Faces Tab

version 2
version 2

Whole song

Interactive

4,480 views 1 this week
no commentswrite comment
1 2 3 4 5
excellent!
x 3
add to favorites
launch autoscroll
font size
0
reset
how to read this tab
guitar tuner
Autoscroll
slow
fast
+/-
esc
set tempo
stop
Help us to improve Ultimate-Guitar.com Take our survey!
×
Author
Angels With Dirty Faces tab

tuning: Db Ab Db Gb Bb Eb
[drop D and then tune down half step]

  __________
 |          |
 |  Deryck  |
 |__________|

Intro. 2

Eb|---------------------------------------------------------------------------||
Bb|---------------------------------------------------------------------------||
Gb|-------10-10-10-10-------10-10-10-10----------12-12-12-12----------9-9-9-9-||
Db|--0--0--x--x--x--x--0--0--x--x--x--x--8-8-8-8--x--x--x--x--7-7-7-7-x-x-x-x-||
Ab|--0--0--8--8--8--8--0--0--8--8--8--8--8-8-8-8-10-10-10-10--7-7-7-7-7-7-7-7-||
Db|--0--0--------------0--0--------------8-8-8-8--------------7-7-7-7---------||

Eb|------------------------------------------------------------------||
Bb|------------------------------------------------------------------||
Gb|-10-----------10-10-------------------12-12-12-12---------9-9-9-9-||
Db|--x---0-0-0-0--x--x---0-0-0-0-8-8-8-8--x--x--x--x-7-7-7-7-x-x-x-x-||
Ab|--8---0-0-0-0--8--8---0-0-0-0-8-8-8-8-10-10-10-10-7-7-7-7-7-7-7-7-||
Db|------0-0-0-0---------0-0-0-0-8-8-8-8-------------7-7-7-7---------||
pm       . . . .         . . . .

Pre-Verse 1
    play this square x3 | this one just once
Eb|---------------------|--------------------||
Bb|---------------------|--------------------||
Gb|---------------------|--------------------||
Db|---0-0-0-----0-0-0-0-|-0-0-0--0-3-3-3-3-2-||
Ab|---0-0-0-----0-0-0-0-|-0-0-0--0-3-3-3-3-2-||
Db|---0-0-0-----0-0-0-0-|-0-0-0--0-3-3-3-3-2-||
pm    . . .     . . . .   . . . 

Verses 1&2

Eb|-----------------------||
Bb|-----------------------||
Gb|-----------------------||
Db|-0-0--8-7-7-3--3-3/10--||
Ab|-0-0--8-7-7-3--3-3/10--|| [x4]
Db|-0-0--8-7-7-3--3-3/10--||

Pre-Chorus

Eb|-----------------||
Bb|-----------------||
Gb|-----------------||
Db|-10------12------||
Ab|--8(x#)--10(x#)--|| [slide into chorus]
Db|--8------10------||

Chorus

Eb|--------------------------------------------------------------||
Bb|--------------------------------------------------------------||
Gb|--------------------------------------------------------------||
Db|-0-0-0-0-0-0-0-3-3-3-3-3-3-3-8-8-8-8-8-8-8-10-10-7-7-8-8-3-3--||
Ab|-0-0-0-0-0-0-0-3-3-3-3-3-3-3-8-8-8-8-8-8-8-10-10-7-7-8-8-3-3--|| [x2]
Db|-0-0-0-0-0-0-0-3-3-3-3-3-3-3-8-8-8-8-8-8-8-10-10-7-7-8-8-3-3--||

Pre-Verse 2

Eb|---------------------||
Bb|---------------------||
Gb|---------------------||
Db|-0~---2~---3~---5~---||
Ab|-0~---2~---3~---5~---|| [x2]
Db|-0~---2~---3~---5~---||

Bridge
    [x3] |   didn't really count this square but this can be figured out
Eb|------|----------------------------------------------------------------||
Bb|------|----------------------------------------------------------------||
Gb|------|----------------------------------------------------------------||
Db|------|-0-0-0-0-0-0-0-0-0-0-0-0-0--0--0--0--0--0--0--0000000000000000--||
Ab|------|-0-0-0-0-0-0-0-0-0-0-0-0-0--0--0--0--0--0--0--0000000000000000--||
Db|-0000-|-0-0-0-0-0-0-0-0-0-0-0-0-0--0--0--0--0--0--0--0000000000000000--||
pm  ....   . . . . . . . . . . . . .  .  .  .  .  .  .  ................

Outro

Eb|-----------------------------------------------------------||
Bb|-----------------------------------------------------------||
Gb|-------10-10-10-10-------10-10-10-10-------10-10-10-10-----||
Db|--0--0--x--x--x--x--0--0--x--x--x--x--0--0--x--x--x--x--0--||
Ab|--0--0--8--8--8--8--0--0--8--8--8--8--0--0--8--8--8--8--0--||
Db|--0--0--------------0--0--------------0--0--------------0--||

----------------------------------------------------------------------------

  __________
 |          |
 |   Dave   |
 |__________|

Intro. 1

Eb|----------------------------------------------||
Bb|----------------------------------------------||
Gb|----------------------------------------------||
Db|----------------------------------------------||
Ab|---10-7--8----10-7--8--7---10-7--8----7-8--7--|| [x2]
Db|-0----------8------------0----------7---------||

Intro. 2

Eb|---------------------------------------------------------------------------||
Bb|---------------------------------------------------------------------------||
Gb|-------10-10-10-10-------10-10-10-10----------12-12-12-12----------9-9-9-9-||
Db|--0--0--x--x--x--x--0--0--x--x--x--x--8-8-8-8--x--x--x--x--7-7-7-7-x-x-x-x-||
Ab|--0--0--8--8--8--8--0--0--8--8--8--8--8-8-8-8-10-10-10-10--7-7-7-7-7-7-7-7-||
Db|--0--0--------------0--0--------------8-8-8-8--------------7-7-7-7---------||

Eb|------------------------------------------------------------------||
Bb|------------------------------------------------------------------||
Gb|-10-----------10-10-------------------12-12-12-12---------9-9-9-9-||
Db|--x---0-0-0-0--x--x---0-0-0-0-8-8-8-8--x--x--x--x-7-7-7-7-x-x-x-x-||
Ab|--8---0-0-0-0--8--8---0-0-0-0-8-8-8-8-10-10-10-10-7-7-7-7-7-7-7-7-||
Db|------0-0-0-0---------0-0-0-0-8-8-8-8-------------7-7-7-7---------||
pm       . . . .         . . . .

Pre-Verse 1
     
Eb|-------------------------------------|
Bb|-------------------------------------|
Gb|-7-7-7-7-7-7-7-7-7-7-10-10-9-9-10-10-|
Db|-x-x-x-x-x-x-x-x-x-x--x--x-x-x--x--x-| <- play this 3 times
Ab|-5-5-5-5-5-5-5-5-5-5--8--8-7-7--8--8-|
Db|-------------------------------------|

Eb|--------------------------------||
Bb|--------------------------------||
Gb|-7-7-7-7-7-7-7-7/10-10-10-10-9--||
Db|-x-x-x-x-x-x-x-x/-x--x--x--x-x--|| <- and this once
Ab|-5-5-5-5-5-5-5-5/-8--8--8--8-7--||
Db|--------------------------------||

Verses 1&2

Eb|-----------------------||
Bb|-----------------------||
Gb|-----------------------||
Db|-0-0--8-7-7-3--3-3/10--||
Ab|-0-0--8-7-7-3--3-3/10--|| [x4]
Db|-0-0--8-7-7-3--3-3/10--||

Pre-Chorus

Eb|-----------------||
Bb|-----------------||
Gb|-----------------||
Db|-10------12------||
Ab|--8(x#)--10(x#)--|| [slide into chorus]
Db|--8------10------||

Chorus

Eb|---------------------------------------------|
Bb|---------------------------------------------|
Gb|-14-14-14-14-10-10-10-10-12-12-12-12-5-5-5-5-|
Db|--x--x--x--x--x--x--x--x--x--x--x--x-x-x-x-x-|
Ab|-12-12-12-12--8--8--8--8-10-10-10-10-3-3-3-3-|
Db|---------------------------------------------|
                                                  play the whole thing twice
Eb|--------------------------------------||
Bb|--------------------------------------||
Gb|-7-7-7-7-9-9-9-9-10-10-10-9--9-9-9----||
Db|-x-x-x-x-x-x-x-x--x--x--x-x--x-x-x----||
Ab|-5-5-5-5-7-7-7-7--8--8--8-7--7-7-7----||
Db|--------------------------------------||

Pre-Verse 2

Eb|---------------------||
Bb|---------------------||
Gb|---------------------||
Db|-0~---2~---3~---5~---||
Ab|-0~---2~---3~---5~---|| [x2]
Db|-0~---2~---3~---5~---||

Bridge
    [x3] |   didn't really count this square but this can be figured out
Eb|------|----------------------------------------------------------------||
Bb|------|----------------------------------------------------------------||
Gb|------|----------------------------------------------------------------||
Db|------|-0-0-0-0-0-0-0-0-0-0-0-0-0--0--0--0--0--0--0--0000000000000000--||
Ab|------|-0-0-0-0-0-0-0-0-0-0-0-0-0--0--0--0--0--0--0--0000000000000000--||
Db|-0000-|-0-0-0-0-0-0-0-0-0-0-0-0-0--0--0--0--0--0--0--0000000000000000--||
pm  ....   . . . . . . . . . . . . .  .  .  .  .  .  .  ................

Outro

Eb|-----------------------------------------------------------||
Bb|-----------------------------------------------------------||
Gb|-------10-10-10-10-------10-10-10-10--0--0-10-10-10-10-----||
Db|--0--0--x--x--x--x--0--0--x--x--x--x--0--0--x--x--x--x--0--||
Ab|--0--0--8--8--8--8--0--0--8--8--8--8--0--0--8--8--8--8--0--||
Db|--0--0--------------0--0--------------0--0--------------0--||

Order:

Intro. 1
Intro. 2
Pre-Verse 1
Verse 1
Pre-Chorus
Chorus
Pre-Verse 2
Verse 2
Pre-Chorus
Chorus
Bridge
Chorus
Outro
Suggest correction
Give kudos to tab author, rate the tab!
1 2 3 4 5
comments
print report bad tab
guest
You may want to rate the tab now too:
select rating
Please do not post tabs as comments. Select "correction" instead!