Oops, an error
Loading. Please wait.

Angels With Dirty Faces Tab

version 3
version 3

Whole song

Interactive

471 views 3 this week
1 commentread comment
1 2 3 4 5
please rate
add to favorites
launch autoscroll
font size
0
reset
how to read this tab
guitar tuner
Autoscroll
slow
fast
+/-
esc
set tempo
stop
Help us to improve Ultimate-Guitar.com Take our survey!
×
Author
All the tabs I've ever seen are wrong so I wrote my own tab
Hope you enjoy.

Guitar 1&2 tuning: Drop Db (Db Ab Db Gb Bb Eb)



[Intro]

Guitar 1:
Eb|-------------------------------------|
Bb|-------------------------------------|
Gb|-------------------------------------|
Db|-------------------------------------|   (X2)
Ab|--10-7-8---10-7-8-7---10-7-8---7-8-7-|
Db|0--------8----------0--------7-------|

[Post Intro]

Guitar 1: 
Eb|--------------------------------------------|
Bb|--------------------------------------------|
Gb|--------------------------------------------|
Db|0-0-----0-0------8-8-8-8------7-7-7-7-------|
Ab|0-0-----0-0------8-8-8-8------7-7-7-7-------|
Db|0-0-----0-0------8-8-8-8------7-7-7-7-------|


Eb|--------------------------------------------|
Bb|--------------------------------------------|
Gb|--------------------------------------------|
Db|-----0-0-0-0-----0-0-0-0-8-8-8-8----7-7-7-7-|
Ab|-----0-0-0-0-----0-0-0-0-8-8-8-8----7-7-7-7-|
Db|-----0-0-0-0-----0-0-0-0-8-8-8-8----7-7-7-7-|

Guitar 2:

Eb|--------------------------------------------------------|
Bb|--------------------------------------------------------|
Gb|---10101010-----10101010-------12-12-12-12------9-9-9-9-|
Db|---x-x-x-x------x-x-x-x--------x--x--x--x-------x-x-x-x-|
Ab|---8-8-8-8------8-8-8-8--------10-10-10-10------7-7-7-7-|
Db|--------------------------------------------------------|

Eb|--------------------------------------------------------|
Bb|--------------------------------------------------------|
Gb|-10-----1010----------12-12-12-12-------9-9-9-9---------|
Db|-x------x-x-----------x--x--x--x--------x-x-x-x---------|
Ab|-8------8-8-----------10-10-10-10-------7-7-7-7---------|
Db|--------------------------------------------------------|

[Verse 1]

Guitar 1:

Eb|---------------------|      |-----------------------|
Bb|---------------------|      |-----------------------|
Gb|---------------------|      |-----------------------|
Db|---------------------| (X3) |-------------3-3-3-3-2-|
Ab|-0-0-0-------0-0-0-0-|      |-0-0-0-------3-3-3-3-2-|
Db|-0-0-0-------0-0-0-0-|      |-0-0-0-------3-3-3-3-2-|

PM: * * *       * * * *          * * *
Guitar 2:

Eb|-----------------------------------|      |------------------------------|
Bb|-----------------------------------|      |------------------------------|
Gb|-7-7-7-7-7-7-7-7-7-7-1010-9-9-1010-|      |-7-7-7-7-7-7-7-7-7-7-1010-9---|
Db|-x-x-x-x-x-x-x-x-x-x-x-x--x-x-x-x--| (X3) |-x-x-x-x-x-x-x-x-x-x-x-x--x---|
Ab|-5-5-5-5-5-5-5-5-5-5-8-8--7-7-8-8--|      |-5-5-5-5-5-5-5-5-5-5-8-8--7---|
Db|-----------------------------------|      |------------------------------|

Guitar 1&2:

Eb|-----------------------------------|
Bb|-----------------------------------|
Gb|-----------------------------------|
Db|-----------------------------------| (X4)
Ab|-0-0-0-0-8-8-7-7-5-5-5-5-5-5/10-10-|
Db|-0-0-0-0-8-8-7-7-5-5-5-5-5-5/10-10-|

[Pre-Chorus]

Guitar 1:

Eb|---------------------------------------------|
Bb|---------------------------------------------|
Gb|---------------------------------------------|
Db|-8-------------------------------10----------|  (Let chords ring)
Ab|-8-------------------------------10----------|
Db|-8-------------------------------10----------|

Guitar 2:

Eb|----------------------------------------------------------------------------------|
Bb|----------------------------------------------------------------------------------|
Gb|-10101010101010101010101010101010-12-12-12-12-12-12-12-12-12-12-12-12-12-12-12-12-|
Db|-x-x-x-x-x-x-x-x-x-x-x-x-x-x-x-x--x--x--x--x--x--x--x--x--x--x--x--x--x--x--x--x--|
Ab|-8-8-8-8-8-8-8-8-8-8-8-8-8-8-8-8--10-10-10-10-10-10-10-10-10-10-10-10-10-10-10-10-|
Db|----------------------------------------------------------------------------------|

[Chorus]

Guitar 1:

Eb|------------------------------------------------------------------------|
Bb|------------------------------------------------------------------------|
Gb|------------------------------------------------------------------------|
Db|-0-0-0-0-0-0-0-0-3-3-3-3-3-3-3-3-8-8-8-8-8-8-8-8-10-10-10-8-8-7-7-7-5-5-| (X2)
Ab|-0-0-0-0-0-0-0-0-3-3-3-3-3-3-3-3-8-8-8-8-8-8-8-8-10-10-10-8-8-7-7-7-5-5-|
Db|-0-0-0-0-0-0-0-0-3-3-3-3-3-3-3-3-8-8-8-8-8-8-8-8-10-10-10-8-8-7-7-7-5-5-|

Guitar 2:

Eb|---------------------------------------------------------------------------|
Bb|---------------------------------------------------------------------------|
Gb|-14-14-14-14-10101010-12-12-12-12-5-5-5-5-7-7-7-7-9-9-9-9-101010-9-9-9-9-9-|
Db|-x--x--x--x--x-x-x-x--x--x--x--x--x-x-x-x-x-x-x-x-x-x-x-x-x-x-x--x-x-x-x-x-| (X2)
Ab|-12-12-12-12-8-8-8-8--10-10-10-10-3-3-3-3-5-5-5-5-7-7-7-7-8-8-8--7-7-7-7-7-|
Db|---------------------------------------------------------------------------|

[Verse 2]

Guitar 1&2:

Eb|-----------------------------|
Bb|-----------------------------|
Gb|-----------------------------|
Db|-0------2------3------5------| (X2)
Ab|-0------3------3------5------|
Db|-0------2------3------5------|

Eb|-----------------------------------|
Bb|-----------------------------------|
Gb|-----------------------------------|
Db|-----------------------------------| (X4)
Ab|-0-0-0-0-8-8-7-7-5-5-5-5-5-5/10-10-|
Db|-0-0-0-0-8-8-7-7-5-5-5-5-5-5/10-10-|

[Pre-Chorus]

Guitar 1:

Eb|---------------------------------------------|
Bb|---------------------------------------------|
Gb|---------------------------------------------|
Db|-8-------------------------------10----------|  (Let chords ring)
Ab|-8-------------------------------10----------|
Db|-8-------------------------------10----------|

Guitar 2:

Eb|----------------------------------------------------------------------------------|
Bb|----------------------------------------------------------------------------------|
Gb|-10101010101010101010101010101010-12-12-12-12-12-12-12-12-12-12-12-12-12-12-12-12-|
Db|-x-x-x-x-x-x-x-x-x-x-x-x-x-x-x-x--x--x--x--x--x--x--x--x--x--x--x--x--x--x--x--x--|
Ab|-8-8-8-8-8-8-8-8-8-8-8-8-8-8-8-8--10-10-10-10-10-10-10-10-10-10-10-10-10-10-10-10-|
Db|----------------------------------------------------------------------------------|

[Chorus]

Guitar 1:

Eb|------------------------------------------------------------------------|
Bb|------------------------------------------------------------------------|
Gb|------------------------------------------------------------------------|
Db|-0-0-0-0-0-0-0-0-3-3-3-3-3-3-3-3-8-8-8-8-8-8-8-8-10-10-10-8-8-7-7-7-5-5-| (X2)
Ab|-0-0-0-0-0-0-0-0-3-3-3-3-3-3-3-3-8-8-8-8-8-8-8-8-10-10-10-8-8-7-7-7-5-5-|
Db|-0-0-0-0-0-0-0-0-3-3-3-3-3-3-3-3-8-8-8-8-8-8-8-8-10-10-10-8-8-7-7-7-5-5-|

Guitar 2:

Eb|---------------------------------------------------------------------------|
Bb|---------------------------------------------------------------------------|
Gb|-14-14-14-14-10101010-12-12-12-12-5-5-5-5-7-7-7-7-9-9-9-9-101010-9-9-9-9-9-|
Db|-x--x--x--x--x-x-x-x--x--x--x--x--x-x-x-x-x-x-x-x-x-x-x-x-x-x-x--x-x-x-x-x-| (X2)
Ab|-12-12-12-12-8-8-8-8--10-10-10-10-3-3-3-3-5-5-5-5-7-7-7-7-8-8-8--7-7-7-7-7-|
Db|---------------------------------------------------------------------------|

[Bridge]: 

Guitar 1&2:

Eb|-------------------|      |----------|
Bb|-------------------|      |----------|
Gb|-------------------|      |----------|
Db|-------------------| (X3) |----------|
Ab|-0-----------0-0-0-|      |--0-(x34)-|
Db|-0-----------0-0-0-|      |--0-------|

PM: *           * * *           *

[Chorus]

Guitar 1:

Eb|------------------------------------------------------------------------|
Bb|------------------------------------------------------------------------|
Gb|------------------------------------------------------------------------|
Db|-0-0-0-0-0-0-0-0-3-3-3-3-3-3-3-3-8-8-8-8-8-8-8-8-10-10-10-8-8-7-7-7-5-5-| (X4)
Ab|-0-0-0-0-0-0-0-0-3-3-3-3-3-3-3-3-8-8-8-8-8-8-8-8-10-10-10-8-8-7-7-7-5-5-|
Db|-0-0-0-0-0-0-0-0-3-3-3-3-3-3-3-3-8-8-8-8-8-8-8-8-10-10-10-8-8-7-7-7-5-5-|

Guitar 2:

Eb|---------------------------------------------------------------------------|
Bb|---------------------------------------------------------------------------|
Gb|-14-14-14-14-10101010-12-12-12-12-5-5-5-5-7-7-7-7-9-9-9-9-101010-9-9-9-9-9-|
Db|-x--x--x--x--x-x-x-x--x--x--x--x--x-x-x-x-x-x-x-x-x-x-x-x-x-x-x--x-x-x-x-x-| (X4)
Ab|-12-12-12-12-8-8-8-8--10-10-10-10-3-3-3-3-5-5-5-5-7-7-7-7-8-8-8--7-7-7-7-7-|
Db|---------------------------------------------------------------------------|

[Outro]

Guitar 1:

Eb|---------------------------------|
Bb|---------------------------------|
Gb|---------------------------------|
Db|-0-0-------0-0-------0-0-------0-|
Ab|-0-0-------0-0-------0-0-------0-|
Db|-0-0-------0-0-------0-0-------0-|

Guitar 2:

Eb|-------------------------------------|
Bb|-------------------------------------|
Gb|----10101010----10101010----10101010-|
Db|----x-x-x-x-----x-x-x-x-----x-x-x-x--|
Ab|----8-8-8-8-----8-8-8-8-----8-8-8-8--|
Db|-------------------------------------|

Have fun :)
Suggest correction
Give kudos to tab author, rate the tab!
1 2 3 4 5
comments
print report bad tab
1 comment total.
0 reply
okman 336 wrote on March 28 2016, 05:43 am

Really good tab , clearly better than the others which have the intro wrong.

guest
You may want to rate the tab now too:
select rating
Wanna post a correction for this tab? Suggest correction