Oops, an error
Loading. Please wait.

Anic Tab

version 1
version 1

Whole song

Interactive

3,620 views 9 this week
7 commentsread comments
1 2 3 4 5
x 10
add to favorites
launch autoscroll
font size
0
reset
how to read this tab
guitar tuner
Autoscroll
slow
fast
+/-
esc
set tempo
stop
Help us to improve Ultimate-Guitar.com Take our survey!
×
Author
Band:Sum 41
Song:A.N.I.C.
Album:Does This Look Infected?
Tuning:Standard
(E-A-D-G-B-E)
b=bend
/=slide

Intro 

E-------------------------------------------------------------------------------
B----------x--0-0---------------------------------------------------------------
G-------------------------------------------------------------------------------
D--3-3-3-3--------------------------4-4-----------------------------------------
A--3-3-3-3--------------------------4-4-----------------------------------------
E--2-2-2-2---------F*CKING-SH*T-----2-2-----------------------------------------

Chorus 

E-------------------------------------------------------------------------------
B-------------------------------------------------------------------------------
G--------------------7-7-7-7--4-4-4-4-------------------------------------------
D--4-4-4-4--7-7-7-7--7-7-7-7--4-4-4-4-------------------------------------------
A--4-4-4-4--7-7-7-7--5-5-5-5--2-2-2-2-------------------------------------------
E--2-2-2-2--5-5-5-5-------------------------------------------------------------

Verse 

E-------------------------------------------------------------------------------
B-------------------------------------------------------------------------------
G------------------------------------5------------------------------------------
D--2-x-x-x----2-x-x-x----2-x-x-x-----5--5---------------------------------------
A--2-x-x-x----2-x-x-x----2-x-x-x-----3--5---------------------------------------
E--0-x-x-x----0-x-x-x----0-x-x-x--------3---------------------------------------


End

E--------------7b---------------------------------------------------------------
B---------------------12------12/---0-------------------------------------------
G-------------------------------------------------------------------------------
D-------------------------------------------------------------------------------
A-------------------------------------------------------------------------------
E-------------------------------------------------------------------------------
Suggest correction
comments
print report bad tab
7 comments total. Showing first comments.
0 reply
Raab 20 Jul 14, 2003 12:00 AM

The notes on the end are all the same so surely you can play them all on the B or E depending on the slide.

0 reply
Sum_41_WjG_03 10 Nov 12, 2003 12:00 AM

the ending is:

w/whammy pedal

|-----------------------------------------------|
|-----------------------------------------------|
|-----------------------------------------------|
|-----------------------------------------------|
|-2-----(2)--(2)--(2)--(2)--(2)--(2)--(2)--(2\)-|
|-----------------------------------------------|

OR WITHOUT WHAMMY PEDAL

|-----------------------------------|
|-----------------------------------|
|-----------------------------------|
|-18---------18h20p18h20p18------9--|
|-----------------------------------|
|-----------------------------------|

0 reply
AllisonsGuitar 10 Nov 06, 2004 12:00 AM

needs to be more complete

guest
You may want to rate the tab now too:
select rating
Wanna post a correction for this tab? Suggest correction