Oops, an error
Loading. Please wait.

Anic Tab

version 5
version 5

Whole song

Interactive

1,138 views 3 this week
no commentswrite comment
1 2 3 4 5
excellent!
x 5
add to favorites
launch autoscroll
font size
0
reset
how to read this tab
guitar tuner
Autoscroll
slow
fast
+/-
esc
set tempo
stop
Help us to improve Ultimate-Guitar.com Take our survey!
×
hi, I'm Vrishank, here are the tabs of Anic by Sum 41 from the album Chuck.
I'm not sure I got the timing right

Palm mute-pm

Intro
guitar line

e/----------------2-------------------------------------------/
b/--------------2---------------------------------------------/
G/------------2-----------------------------------------------/
D/------------------------------------------------------------/
A/---4-4-4---------------------4-4----------------------------/
E/---2-2-2---------------------2-2----------------------------/


Verse 1 and 2

e/---------------------------------------------------------------/
b/---------------------------------------------------------------/
G/---------------------------------------------------------------/X2
D/----------------------------7-7-7-7------4-4-4-4---------------/
A/---4-4-4-4------7-7-7-7-----5-5-5-5------2-2-2-2---------------/
E/---2-2-2-2------5-5-5-5----------------------------------------/

CHorus


e/-----------------------------------------------------------/
b/-----------------------------------------------------------/
G/-----------------------------------------------------------/
D/---------------------5-------------------------------------/X 2
A/---------------------3---5---------------------------------/
E/pm-0000000000000---------3---------------------------------/



----------------------Outro has verse's chords---------------------------


e/---------------------------------------------------------------/
b/---------------------------------------------------------------/
G/---------------------------------------------------------------/X4
D/----------------------------7-7-7-7------4-4-4-4---------------/
A/---4-4-4-4------7-7-7-7-----5-5-5-5------2-2-2-2---------------/
E/---2-2-2-2------5-5-5-5----------------------------------------/


---------------------ENDS WITH TREMELO BEND[like thing]-------------------

Thanks pls comment and rate.

Email :star11scream@hotmail.com
Suggest correction
comments
print report bad tab
guest
You may want to rate the tab now too:
select rating
Please do not post tabs as comments. Select "correction" instead!