Oops, an error
Loading. Please wait.

Another Time Around Tab

version 2
version 2

Whole song

1,188 views 6 this week
1 commentread comment
1 2 3 4 5
excellent!
x 5
add to favorites
launch autoscroll
font size
0
reset
how to read this tab
guitar tuner
Tab Pro tools
  • play this tab
  • loop segment
  • change instrument
  • show fretboard
  • metronome
Autoscroll
slow
fast
+/-
esc
set tempo
stop
Contributor
Another Time Around by Sum 41 


INTRO
Guitar 1
e-------------------------------------------------------------|
B-5-------7---------------------------------------------------|
G-6-------7-------6-------------------------------------------|
D-6-------7-------7---------------6----------------4--------7-|
A-4-------5-------7---------------6----------------4--------7-|
E-----------------5---------------4----------------2--------5-|

Guitar 2
e--------------------------------------------------------------------|
B--------------------------------------------------------------------|
G-9------11-------9--------------13---------------14-------14------9-|
D-x-------x-------x---------------x----------------x--------x------x-|
A-7-------9-------7--------------11---------------12-------12------7-|
E--------------------------------------------------------------------|

Then... Guitars 1&2
e-----------------------------------|
B-----------------------------------|
G-----------------------------------|
D-2-2-2-2-2-2-2-2-2-2-2-2--22222222-|
A-2-2-2-2-2-2-2-2-2-2-2-2--22222222-|
E-0-0-0-0-0-0-0-0-0-0-0-0--00000000-|
pm. . . . . . . . . . . .

e--------------------------|
B--------------------------|
G--------------------------|
D---7-7777-77-77-222222222-| x4
A---7-7777-77-77-222222222-|
E---5-5554-45-54-000000000-|

VERSE
Guitar 1                                    Guitar 2 (slide on the last chord)
e----------------------------------------|  -----------------------------------|  
B----------------------------------------|  -----------------------------------|  
G-7777----------------7777---------------|  -----------------------------------|  
D-7777-7777-22222222--7777-7777-22222222-|  -----------------------------------|  
A-5555-7777-22222222--5555-7777-22222222-|  --\\\\\\\--\\\\\\\-|  
E------5555-00000000-------5555-00000000-|  --\\\\\\\--\\\\\\\-|  

Then...
Guitars 1&2
e----------------------------------------|
B----------------------------------------|
G-7777----------------7777---------------|
D-7777-7777-22222222--7777-7777-22222222-|
A-5555-7777-22222222--5555-7777-22222222-|
E------5555-00000000-------5555-00000000-|

Then...
Guitar 1
e----------------------------------------|
B----------------------------------------|
G-7777----------------7777---------------|
D-7777-7777-22222222--7777-7777-22222222-|
A-5555-7777-22222222--5555-7777-22222222-|
E------5555-00000000-------5555-00000000-|
Guitar 2
e------------------------------------------------|
B------------------------------------------------|
G-7777-11111111-99999999--7777-11111111-99999999-|
D-xxxx-x-x-x-x--xxxxxxxx--xxxx-x-x-x-x--xxxxxxxx-|
A-5555-9-9-9-9--77777777--5555-9-9-9-9--77777777-|
E------------------------------------------------|

Then...
Guitars 1&2
e----------------------------------------------|
B----------------------------------------------|
G-7-777------------------7-777-----------------|
D-7-777-7-777-2-2222222—-7-777-7-777-2-2222222-|
A-5-555-7-777-2-2222222—-5-555-7-777-2-2222222-|
E-------5-555-0-0000000--------5-555-0-0000000-|
pm  ...   ...   .......    ...   ...   ....

e----------------------------------------|
B----------------------------------------|
G-7777----------------7777---------------|
D-7777-7777-22222222--7777-7777-22222222-|
A-5555-7777-22222222--5555-7777-22222222-|
E------5555-00000000-------5555-00000000-|

e---------------------------------|
B---------------------------------|
G-7---------------7---------------|
D-7-x8-7----2-----7-x8-7----2-----|
A-5----7-x8-2-x16-5----7-x8-2-x16-|
E------5----0----------5----0-----|

"I'm not the one, I can't pretend"
e-----------------------------------------------|
B-----------------------------------------------|
G-44444444-77777777-7777-4444-22222222----------|
D-44444444-77777777-7777-4444-22222222-22222222-|
A-22222222-55555555-4444-2222-00000000-22222222-|
E--------------------------------------00000000-|

e--------------------------|
B--------------------------|
G--------------------------|
D---7-7777-77-77-222222222-| x4
A---7-7777-77-77-222222222-|
E---5-5554-45-54-000000000-|

Guitar 1
e-------------------------------------------------------------|
B-5-------7---------------------------------------------------|
G-6-------7-------6-------------------------------------------|
D-6-------7-------7---------------6----------------4--------7-|
A-4-------5-------7---------------6----------------4--------7-|
E-----------------5---------------4----------------2--------5-|

Guitar 2
e--------------------------------------------------------------------|
B--------------------------------------------------------------------|
G-9------11-------9--------------13---------------14-------14------9-|
D-x-------x-------x---------------x----------------x--------x------x-|
A-7-------9-------7--------------11---------------12-------12------7-|
E--------------------------------------------------------------------|

Then... Guitars 1&2
e-----------------------------------|
B-----------------------------------|
G-----------------------------------|
D-2-2-2-2-2-2-2-2-2-2-2-2--22222222-|
A-2-2-2-2-2-2-2-2-2-2-2-2--22222222-|
E-0-0-0-0-0-0-0-0-0-0-0-0--00000000-|
pm. . . . . . . . . . . .

e----------------------------------------|
B----------------------------------------|
G-7777----------------7777---------------|
D-7777-7777-22222222--7777-7777-22222222-|
A-5555-7777-22222222--5555-7777-22222222-|
E------5555-00000000-------5555-00000000-|

e---------------------------------------------|
B---------------------------------------------|
G-7~------------------------------------------|
D-5~---7~---2-2-2-2-2-2-2-2-2-2-2-2--22222222-|
A-5~---7~---2-2-2-2-2-2-2-2-2-2-2-2--22222222-|
E------5~---0-0-0-0-0-0-0-0-0-0-0-0--00000000-|
pm          . . . . . . . . . . . .

e------------------------------------------------------|
B------------------------------------------------------|
G-7---------------7~-----------------------------------|
D-7-x8-7----2-----7~---7-7-7-7-7-7-7-7-7-7-7-7-7-7-7-7-|
A-5----7-x8-2-x16-5~---7-7-7-7-7-7-7-7-7-7-7-7-7-7-7-7-|
E------5----0----------5-5-5-5-5-5-5-5-5-5-5-5-5-5-5-5-|

OUTRO
e--------------------------------------------------|
B--------------------------------------------------|
G--------------------------------------------------|
D-7-777-7-777-7-77777777-7-777-7-777-7-77777777-7~-|
A-7-777-7-777-7-77777777-7-777-7-777-7-77777777-7~-|
E-5-555-5-555-5-55555555-5-555-5-555-5-55555555-5~-|
comments
print report bad tab
1 comment total.
0 reply
eldanny wrote on May 3 2008, 10:33 pm

Awesome, if only someone could tab the full outro, that last solo is brillient. I don't expect anyone apart from a pro to be able to tab that last part so 5*s from me.

I want to post or [tab]
guest
You may want to rate the tab now too:
select rating
Please do not post tabs as comments. Select "correction" instead!