Oops, an error
Loading. Please wait.

Astronaut Tab

version 1
version 1

Whole song

Interactive

788 views 3 this week
no commentswrite comment
1 2 3 4 5
please rate
add to favorites
launch autoscroll
font size
0
reset
how to read this tab
guitar tuner
Autoscroll
slow
fast
+/-
esc
set tempo
stop
Help us to improve Ultimate-Guitar.com Take our survey!
×
Author
Difficulty
novice
-------------------------------------------------------------------
              Band - Sum 41
              Song - Astronaut
              Album - Rock Out With Your Cock Out (Demo Cassette)
              Tabbed By - SumFX 
-------------------------------------------------------------------
Hey, I Thought I Would Tab This Because There Were No Tabs For It.
It's An Awesome Song, I Think One Of The First Sum 41 Wrote.
I Have Tried To Structure This In The Simplest Way Possible.
Rate And Comment Please :D
-------------------------------------------------------------------
Intro

|------|
|------|
|--6---|
|--6---|
|--4---|
|------|

Verse 
|--------|-------|-------|-------|------|------|
|--------|-------|-------|-------|------|------|
|--------|-------|-------|-------|------|------|
|--66----|-------|-66----|----33-|------|------|
|--44-44-|-44-66-|-44-44-|-33-11-|-6666-|-4444-|
|-----22-|-66-44-|----22-|-11----|-4444-|-2222-|

|--------|------|------|------|------|------|
|--------|------|------|------|------|------|
|--------|------|------|------|------|------|
|--6-----|-6--5-|-3333-|------|------|------|
|--4---6-|-4--3-|-1111-|-4444-|-6666-|-6666-|
|------4-|------|------|-2222-|-4444-|-4444-|

Chorus
|-------|------|------|------|------|------|------|-------|
|-------|------|------|------|------|------|------|-------|
|-------|------|------|------|------|------|------|-------|
|--6666-|-3333-|------|------|-6666-|-3333-|------|-------|
|--4444-|-1111-|-4444-|-6666-|-4444-|-1111-|-4444-|-6666--|
|-------|------|-2222-|-4444-|------|------|-2222-|-4444--|

Bridge 1 (Palm Mute Section)
|-------|------|------|-----|---------|------|------|
|-------|------|------|-----|---------|------|------|
|-------|------|------|-----|---------|------|------|
|--6666-|-6666-|------|-----|-4-3-----|-6666-|------|
|--4444-|-4444-|-4444-|-4-4-|-----6-2-|-4444-|-6666-|
|-------|------|-2222-|-2\1-|---------|------|-4444-|
   ....   ....   ....   . .   . . . .   ....   ....

Bridge 2
|-----------|------|-------|-------|-------|-------|-------|
|-----------|------|-------|-------|-------|-------|-------|
|-----------|------|-------|-------|-------|-------|-------|
|--8-8-10-11|-6----|-------|-6-----|-------|-------|-------|
|--6-6-8--9-|-4----|-4-----|-4-----|--6----|--4----|--6----|
|-----------|------|-2-----|-------|--4----|--2----|--4----|

Chorus (Repeat To End)      End On
|-----------------------|   |-----|
|-----------------------|   |-----|
|-----------------------|   |--6--|
|--6666-3333------------|   |--6--|
|--4444-1111-4444-6666--|   |--4--|
|------------2222-4444--|   |-----|
Suggest correction
Give kudos to tab author, rate the tab!
1 2 3 4 5
comments
print report bad tab
guest
You may want to rate the tab now too:
select rating
Please do not post tabs as comments. Select "correction" instead!