Oops, an error
Loading. Please wait.

Baby You Dont Wanna Know Tab

version 2
version 2

Whole song

Interactive

1,541 views 1 this week
no commentswrite comment
1 2 3 4 5
accurate
x 3
add to favorites
launch autoscroll
font size
0
reset
how to read this tab
guitar tuner
Autoscroll
slow
fast
+/-
esc
set tempo
stop
Help us to improve Ultimate-Guitar.com Take our survey!
×
Author
Difficulty
intermediate
if you find a better way to play this, please post!
Sorry, don't know the solo. if you learn it, again...please post!


Main Riff/Intro
e)-------------------------------------------------------------------------|
B)-------------------------------------------------------------------------|
G)-----55-757-57-57-575----------------------------------------------------|
D)-----55-757-57-57-575-7--------------------------------------------------|x8
A)-----33-535-35-35-353-7--------------------------------------------------|
E)----------------------5--------------------------------------------------|

"cause your just a drag and you just ran out of time."
e)-------------------------------------------------------------------------|
B)-------------------------------------------------------------------------|
G)-------------------------------------------------------------------------|
D)------5--55-55-55-55-55-55-55--------------------------------------------|
A)------5--55-55-55-55-55-55-55--------------------------------------------|
E)------3--33-33-33-33-33-33-33--------------------------------------------|

Repeat first two.

Chorus 1
e)-------------------------------------------------------------------------|
B)-------------------------------------------------------------------------|
G)--7-7-7-7-7-7-7-7-5-5-5-5-5-5-5-5----------------------------------------|
D)--7-7-7-7-7-7-7-7-5-5-5-5-5-5-5-5-5-5-5-5-5-5-5-5-5-5-5-5-5-5-5-5--------|
A)--5-5-5-5-5-5-5-5-3-3-3-3-3-3-3-3-5-5-5-5-5-5-5-5-5-5-5-5-5-5-5-5--------|
E)----------------------------------3-3-3-3-3-3-3-3-3-3-3-3-3-3-3-3--------|

Chorus 2 (Chords)
e)-------------------------------------------------------------------------|
B)-------------------------------------------------------------------------|
G)--5-5-5-5-5-5-5-5-7-7-7-7-7-7-7-7----------------------------------------|
D)--5-5-5-5-5-5-5-5-7-7-7-7-7-7-7-7-5-5-5-5-5-5-5-5-5-5-5-5-5-5-5-5--------|
A)--3-3-3-3-3-3-3-3-5-5-5-5-5-5-5-5-5-5-5-5-5-5-5-5-5-5-5-5-5-5-5-5--------|
E)----------------------------------3-3-3-3-3-3-3-3-3-3-3-3-3-3-3-3--------|

Chorus 2 (solo)
e)-------------------------------------------------------------------------|
B)-------10-10-3/------10-10-9============---------------------------------|
G)-------------------------------------------------------------------------|
D)-------------------------------------------------------------------------|
A)-------------------------------------------------------------------------|
E)-------------------------------------------------------------------------|

Breakdown
e)-------------------------------------------------------------------------|
B)-------------------------------------------------------------------------|
G)------------------------------------------------1010101010---------------|
D)--------------------------------3-3-3-3-3-3-3-3-1010101010---------------|
A)--------------------------------3-3-3-3-3-3-3-3-8-8-8-8-8----------------|
E)--5~~~~-5-4~~~~-4-3~~~~-3-1~~~~-1-1-1-1-1-1-1-1--------------------------|

= = hold note
/ = Slide off the note
~ = wiggle string (vibrato)
Suggest correction
Give kudos to tab author, rate the tab!
1 2 3 4 5
comments
print report bad tab
guest
You may want to rate the tab now too:
select rating
Wanna post a correction for this tab? Suggest correction