Oops, an error
Loading. Please wait.

Best Of Me bass

version 1
version 1

Whole song

Interactive

by Sum 41
7,624 views 6 this week
1 commentread comment
1 2 3 4 5
x 5
add to favorites
×
Save as Personal and add changes to this tab that will be seen only by you. Learn more ›
×
You can save this tab as Personal to edit and correct it or add notes. All changes will be seen only by you. Learn more »
launch autoscroll
font size
0
reset
guitar tuner
backing track
0:00
0:00
edit
Autoscroll
slow
fast
+/-
esc
set tempo
stop
Bass Tab
Best of Me
Sum 41
Underclass Hero

It’s a relatively easy song to play, but it’s still one of the best songs on the album.  
my first tab, so I hope it’s okay.

Intro (x1)
G|----------------------------------------------------------|
 D|-------------0--0--0--0----------------------0--0--------|
 A|----------------------------------------3--3-------------|
 E|3--3--3--3---------------0--0--0--0----------------------|


Verse (x2)
 G|---------------------------------------------------------|
 D|-------------0--0--0--0----------------------0--0--------|
 A|----------------------------------------3--3-------------|
 E|3--3--3--3---------------0--0--0--0----------------------|

Pre-Chorus
G|----------------------------------------------------------|
 D|-------------0--0--0--0----------------------0--0--------|
 A|----------------------------------------3--3-------------|
 E|3--3--3--3---------------0--0--0--0----------------------|

Chorus (x2)
G|------------------------------------------------------------------------------|
D|------------------------------------------------------------------------------|
A|-------------------5-5-5-5--------------------3-3-3-3-5-5-5-5-----------------|
E|3-3-3-3-3-3-3-3----------0-0-0-0-0-0-0-0-------------------3-3-3-3------------|

Repeat Intro
Verse
Pre-Chorus
Chorus

For the solo, I couldn’t figure out if there was bass or not, but If you want to, you 
add a fill made up of

E, C, D, and G  and it doesn’t sound too bad.

Repeat intro, and end on G

Pm me with any questions or edits.

            
            
Suggest correction
Creating personal tab
Creating personal tab
You can edit any tab online and save it as your Personal.

You can edit, replace or remove any tab part or add personal notes – all changes will be seen only by you.

Personal tabs can be accessed anytime from any device, even offline.
Learn more »
comments
print report bad tab
1 comment total.
0 reply
jacensolo123 62 Dec 18, 2009 06:15 AM

you should play instead of D|-o- , A|-5-. Thats better. 4*

guest
You may want to rate the tab now too:
select rating
Wanna post a correction for this tab? Suggest correction