Oops, an error
Loading. Please wait.

Best Of Me Tab

version 1
version 1

Solo

Whole song

Interactive

27,313 views 12 this week
4 commentsread comments
1 2 3 4 5
x 11
add to favorites
launch autoscroll
font size
0
reset
how to read this tab
guitar tuner
Autoscroll
slow
fast
+/-
esc
set tempo
stop
Help us to improve Ultimate-Guitar.com Take our survey!
×
Author
Difficulty
intermediate
Artist: Sum 41
Song: Best of Me
Album: Underclass Hero
Part: Solo
Tab: Lord-Roli (Roland G.)


E|-----------------------------------------------------------------------------------------|
B|-8---8---8---8---8---8---8---8-----/8-8--7-8--8--10-10-----8-8--7-8--8--10-10------------|
G|---7---7---7---7---7---7---7---7---/7-7--7-7--7--7--7---7--7-7--7-7--7--7--7--7----------|
D|-----------------------------------------------------------------------------------------|
A|-----------------------------------------------------------------------------------------|
E|-----------------------------------------------------------------------------------------|

E|------7----------7--------10-----10------------------------------------------------------|
B|------------7---------7-8----8-7----7-8-8-8--7-8--8--10-10-----8-8--7-8--8--10-10--------|
G|-/7-7----7----7----7--------------------7-7--7-7--7--7--7---7--7-7--7-7--7--7--7--7------|
D|-----------------------------------------------------------------------------------------|
A|-----------------------------------------------------------------------------------------|
E|-----------------------------------------------------------------------------------------|

E|------7----------7--------7-------7----------10-------10------------10------10-----------|
B|------------7------------------8-------8--7-----8--7----8--7--10-8-----10-8----8-10-10~--|
G|-/7-7----7----7----7--9-9----9---9---9-----------------------------------------------7~--|
D|-----------------------------------------------------------------------------------------|
A|-----------------------------------------------------------------------------------------|
E|-----------------------------------------------------------------------------------------|

Rest of the Song is here: http://www.ultimate-guitar.com/tabs/s/sum_41/best_of_me_tab.htm

Greetz
Roli
Suggest correction
comments
print report bad tab
4 comments total. Showing first comments.
0 reply
sum41rules 10 Oct 04, 2007 12:08 PM

its not good. soz but tis worse tan i wud do n im pretty crap:)

-x-sum 41 rules-x-

0 reply
Lord-Roli 208 Oct 04, 2007 12:42 PM

i find it sounds perfect and right o0

0 reply
smorl7 303 Dec 10, 2007 06:59 PM

This solo is awsome!!!

guest
You may want to rate the tab now too:
select rating
Wanna post a correction for this tab? Suggest correction