Oops, an error
Loading. Please wait.

Black Eyes Chords

version 1
version 1

Acoustic

Whole song

307 views 3 this week
no commentswrite comment
1 2 3 4 5
1 last vote to show rating
add to favorites
launch autoscroll
font size
0
reset
transpose
0
reset
display chords
guitar tuner
Autoscroll
slow
fast
+/-
esc
set tempo
stop
Help us to improve Ultimate-Guitar.com Take our survey!
×
Author
Difficulty
novice
-----------------------------------------------------------------------------------------------------------
                                       Sum 41- Black Eyes
-----------------------------------------------------------------------------------------------------------

This is a bonus song on the album 13 voices.

*If anyone knows what the words are at 0:53 and 1:54 please comment.*


[Chords]

Em-022000
C-x32020
G-320033
D-xx0232

[Chords-alternate(darker)]

Em  - 022033
Cadd9-x32033
G  -  320033
D  -  xx0233

[Power-chords]

Em-022xxx
C-x355xx
G-355xxx
D-x577xx



[Verse]

Em 
  I never wanted to be another one in the same
C
  I may never fit in, but I will always remain
G
  If only you could read my mind
D
  If only just for one more time

Em
   You say theres nowhere to run, but I got nothing to hide
C
   I could see through the shit, even through these black eyes
G
   A confession of a dangerous mind
D
   A direction to perfection is the last thing I want



[Solo]

Em - C - G - D

[Lead] (In case you want to make it a duet)(also plays during chorus) 

|------------------------------------------------------------------------|
|---------3-------3-------3----------------3-------3-------3-------------|
|-----------4-------4-------4----------------4-------4-------4-----------|
|---2-2-2-----2-2-----2-2-----2-2-2--5-5-5-----5-5-----5-5-----5-5-5-----|
|------------------------------------------------------------------------|
|------------------------------------------------------------------------|

|------------------------------------------------------------------------|
|---------3-------3-------3----------------3-------3-------3-------------|
|-----------4-------4-------4----------------4-------4-------4-----------|
|---0-0-0-----0-0-----0-0-----0-0-0--------------------------------------|
|------------------------------------3-3-3-----3-3-----3-3-----3-3-3-----|
|------------------------------------------------------------------------|


[Verse]

Em
   So tell me when does enough ever become enough
C
   If everything is to lose then I will never give up
G
   I don't care what you got in mind
D
   The truth is never hard to find

Em 
   I've been trying to break the only link in the chain
C
   I've been pleading the fifth cause I've got nothing to say
G
   A bad plan with no warning signs
D
   A god given secret with the passion I don't want


[Chorus]

Em 
  Cause this I say to you
C
   I'm bleeding out my heart
G                  D
  Tell me if it's true, this is tearing me apart

Em
   So tell me one more time
C
   Cause I can't let you go
G                      D
   If this is where it lies help me,  cause I just need to know





[Bridge] 

                                              
|---0-0-0---------0-0---------0-0-------|          |---------------------------------------|
|---0-0-0---------0-0---------0-0-------| ( or )   |---------------------------------------|
|---0-0-0---------0-0---------0-0-------|   (x17)  |---9-9-9---------9-9---------9-9-------|
|---2-2-2---------2-2---------2-2-------|          |---9-9-9---------9-9---------9-9-------|
|---2-2-2---------2-2---------2-2-------|          |---7-7-7---------7-7---------7-7-------|
|---0-0-0-0-0-0-0-0-0-0-0-0-0-0-0-0-0---|          |---0-0-0-0-0-0-0-0-0-0-0-0-0-0-0-0-0---|



(After 9th time)

The truth is all I needed to know

Do you still feel the same way too



Don't tell...

|---------------------------------------|
|---7-7-------------7-------------------|
|---6-6-------------6-------------------|
|---4-4-4-4-4-4-4-4-4-------------------|
|---------------------------------------|
|---------------------------------------|



Em  C  G  D





[Chorus]

Em 
  Cause this I say to you
C
   I'm bleeding out my heart
G                  D
  Tell me if it's true, this is tearing me apart

Em
   So tell me one more time
C
   Cause I can't let you go
G                      D
   If this is where it lies help me,  cause I just need to know

Em 
  Cause this I say to you
C
   I'm bleeding out my heart
G                  D
  Tell me if it's true, this is tearing me apart

Em
   So tell me one more time
C
   Cause I can't let you go
G                      D
   If this is where it lies help me,  cause I just need to know



 [Outro]

                                           [ or ]            [Alternative]
|---0-0-0---------0-0---------0-0-------|          |---------------------------------------|
|---0-0-0---------0-0---------0-0-------|          |---------------------------------------|
|---0-0-0---------0-0---------0-0-------|   (x4)   |---9-9-9---------9-9---------9-9-------|
|---2-2-2---------2-2---------2-2-------|          |---9-9-9---------9-9---------9-9-------|
|---2-2-2---------2-2---------2-2-------|          |---7-7-7---------7-7---------7-7-------|
|---0-0-0-0-0-0-0-0-0-0-0-0-0-0-0-0-0---|          |---0-0-0-0-0-0-0-0-0-0-0-0-0-0-0-0-0---|


End on either of the above


Suggest correction
Give kudos to tab author, rate the tab!
1 2 3 4 5
comments
print report bad tab
guest
You may want to rate the tab now too:
select rating
Wanna post a correction for this tab? Suggest correction