Oops, an error
Loading. Please wait.

Breaking The Chain Tab

859 views 57 this week
no commentswrite comment
1 2 3 4 5
2 more votes to show rating
add to favorites
launch autoscroll
font size
0
reset
how to read this tab
guitar tuner
Autoscroll
slow
fast
+/-
esc
set tempo
stop
Help us to improve Ultimate-Guitar.com Take our survey!
×
Author
Difficulty
Tuning
intermediate
D A D G B E
About this tab version
The tab explains how to play the song in detail. The different rhythm guitars and the tuning in order to play the song like the version on the album. Was this info helpful? Yes No
This song is another mainly orchestral on 13 Voices except the bridge. Other than that, it's not that hard. 
I'm open to improvements and enjoy! 

Tabbed by:senorheisenberg
Track:Breaking The Chain
Artist:Sum 41
Album:13 Voices
Year:2016
Tuning: Drop D
[Intro:]
e|-----------------------|
B|-----------------------|
G|-------------2-2-------|
D|-4-4---0-0---2-2---6-6-|
A|-4-4---0-0---0-0---6-6-|
D|-4-4---0-0---------6-6-|

[Pre-chorus:]
e|-----------------------------------|
B|-----------------------------------|
G|-----------------------------------|
D|-0-0-0-0-0-0-0-0-2-2-2-2-2-2-2-2-2-|
A|-0-0-0-0-0-0-0-0-2-2-2-2-2-2-2-2-2-|
D|-0-0-0-0-0-0-0-0-2-2-2-2-2-2-2-2-2-|
  ..................................

"Because i'm bound to fall..."

[Chorus:]
e|-----------------------------------------------------------------|
B|-----------------------------------------------------------------|
G|-----------------2-2-2-2-2-2-2-2---------------------------------|
D|-4-4-4-4-4-4-4-4-2-2-2-2-2-2-2-2-0-0-0-0-0-0-0-0-2-2-2-2-2-2-2-2-|
A|-4-4-4-4-4-4-4-4-0-0-0-0-0-0-0-0-0-0-0-0-0-0-0-0-2-2-2-2-2-2-2-2-|
D|-4-4-4-4-4-4-4-4-----------------0-0-0-0-0-0-0-0-2-2-2-2-2-2-2-2-|

"I'm Breaking The Chain..."

[Bridge 1:]
Guitar 1:
e|-------------------------------------------------------------------------------|
B|-------------------------------------------------------------------------------|
G|-------------------------------------------------------------------------------|
D|-0-0---------0-0-0-0-------------------0-0---------0-0-0-0---------------------|
A|-0-0-9p5h7-9-0-0-0-0-9p5h7-9-12-11-9-7-0-0-9p5h7-9-0-0-0-0-7-9-11-12-11-11p9-7-|
D|-0-0---------0-0-0-0-------------------0-0---------0-0-0-0---------------------|
   ...         .......                   ...         ........

Guitar 2:
e|-------------------------------------------------------|
B|-------------------------------------------------------|
G|-------------------------------------------------------|
D|-4p0h2-4---4p0h2-4-7-6-4-2---4p0h2-4---2-4-6-7-6-6p4-2-|
A|-------------------------------------------------------|
D--------------------------------------------------------| 

[Bridge 2:]
e|---------------------------------|
B|---------------------------------|
G|-7-7-7-7-7-7-7-7-----------------|
D|-7-7-7-7-7-7-7-7-2-2-2-2-4-4-4-4-|
A|-5-5-5-5-5-5-5-5-2-2-2-2-4-4-4-4-|
D|-0-0-0-0-0-0-0-0-2-2-2-2-4-4-4-4-|

"With every step that I take..."

************************************

| x   Dead note
| g   Grace note
| (n) Ghost note
| h   Hammer-on
| p   Pull-off
| r   Release
| >   Accented note
| t   Tapping
| b   Bend
| br  Bend release
| pb  Pre-bend
| pbr Pre-bend release
| /   Slide up
| \   Slide down
| ~   Vibrato
| s   Slap
| P   Pop
| PM  Palm mute
| TR  Trill
| N   Tremolo

************************************
Suggest correction
Give kudos to tab author, rate the tab!
1 2 3 4 5
comments
print report bad tab
guest
You may want to rate the tab now too:
select rating
Wanna post a correction for this tab? Suggest correction