Oops, an error
Loading. Please wait.

Confusion And Frustration In Modern Times bass

version 1
version 1

Whole song

Interactive

by Sum 41
3,676 views 9 this week
2 commentsread comments
1 2 3 4 5
1 last vote to show rating
add to favorites
×
Save as Personal and add changes to this tab that will be seen only by you. Learn more ›
×
You can save this tab as Personal to edit and correct it or add notes. All changes will be seen only by you. Learn more »
launch autoscroll
font size
0
reset
guitar tuner
edit
Autoscroll
slow
fast
+/-
esc
set tempo
stop
Author
Tuning: Standard

(There is no bass in the Intro.)

Pre-Verse (0:21)

G|-------------------------------------------------------------------------|
D|-------------------------------------------------------------------------|
A|-222222------------------------------222222------------------------------|
E|--------0--0000000-444444-0--0000000--------0--0000000-2-22222222222222--|

Verse (0:29)

G|------------------------------------------------------------------------|
D|------------------------------------------------------------------------|
A|-2222222222222222-------------------2222222222222222--------------------|
E|------------------44444444-00000000------------------44444444-00000000--|

Then, (0:37)

G|------------------------------------------------------------------------|
D|------------------------------------------------------------------------|
A|-----------------22222222--------------------------22222222-------------|
E|-4---4---0----------------22222222-4---4---0----------------22222222----|
(So what went wrong?..)

Pre-Chorus (0:45)

G|--------------------------------------------------|
D|--------------------------------------------------|
A|-------------------22222222-----------------------|
E|-44444444-00000000----------22222222-44444444-0---|
(Apathy plus-sized..)

Chorus (0:52)

G|----------------------------------------------------------------------|
D|----------------------------------------------------------------------|
A|-22222222----------------------------22222222-------------------------|
E|----------22222222-44444444-00000000----------22222222-44444444-0-----|

Repeat Pre-Verse (1:02)

Verse 2 (1:10)

G|-------------------------------------------------------------------------|
D|-------------------------------------------------------------------------|
A|-22222222-------------------77777777-22222222-------------------77777777-|
E|----------00000000-44444444-------------------00000000-44444444----------|

Then, (1:19)

G|-------------------------------------------------------------------------|
D|-------------------------------------------------------------------------|
A|---------77777777-22222222------------------77777777-22222222------------|
E|-4---4---------------------22222222-4---4---------------------22222222---|
(More Regrets..)

Repeat Pre-Chorus (1:27)
Chorus 2 (1:33)

G|-------------------------------------------------------------------------|
D|-------------------------------------------------------------------------|
A|-22222222----------------------------22222222----------------------------|
E|----------22222222-44444444-00000000----------22222222-44444444-00000000-|

G|-------------------------------------------------------------------------|
D|-------------------------------------------------------------------------|
A|-22222222----------------------------22222222----------------------------|
E|----------22222222-44444444-00000000----------22222222-44444444-0--------|

Bridge (1:50)

G|-------------------------------------------------------------------------|
D|-------------------------------------------------------------------------|
A|-------------------------7-----------------------------------------------|
E|-4---4---0-------4---4-----------4---4---0-------2222222222222222--------|
(Dead-end Roads..)

G|------------------|
D|------------------|
A|------------------|
E|-7---7---7---7\---|

Bridge Part 2 (2:00)

G|-------------------------------------------------------------------|
D|-------------------------------------------------------------------|
A|-2-2-2-2-2-2-2-2---------------------------------------------------|
E|-----------------0-0-0-0-0-0-0-0-4-4-4-4-4-4-4-4-2-2-2-2-2-2-2-2---|

G|----------------------------------------------------|
D|----------------------------------------------------|
A|-2-2-2-2-2-2-2-2------------------------------------|
E|-----------------0-0-0-0-0-0-0-0-4--4-6--7-7----0---|

Then, (2:17)

G|-------------------------------------------------------------------|
D|-------------------------------------------------------------------|
A|-2-2-2-2-2-2-2-2---------------------------------------------------|
E|-----------------2-2-2-2-2-2-2-2-4-4-4-4-4-4-4-4-0-0-0-0-0-0-0-0---|
(Play Until 2:50)

Then, (2:50)
G|---------------------------------------------------|
D|---------------------------------------------------|
A|-2-2-2-2-2-2-2-2-2~-------2-2-2-2-2-2-2-2-2~-------|
E|---------------------------------------------------|

G|------------------------------------------------------------------|
D|------------------------------------------------------------------|
A|-2-2-2-2-2-2-2-2-2-2-2-2-2-2-2-2-2-2-2-2-2-2-2-2-2-2-2-2-2-2-2-2--|
E|------------------------------------------------------------------|

Final Chorus (3:06)
G|-------------------------------------------------------------------------|
D|-------------------------------------------------------------------------|
A|-22222222----------------------------22222222----------------------------|
E|----------22222222-44444444-00000000----------22222222-44444444-00000000-|

G|-------------------------------------------------------------------------|
D|-------------------------------------------------------------------------|
A|-22222222----------------------------22222222----------------------------|
E|----------22222222-44444444-00000000----------22222222-44444444-0--------|

Outro (Bass starts at 3:27)

G|----------------------------------------|
D|----------------------------------------|
A|-22222222-------------------------------|(Continued..)
E|----------22222222-44444444-00000000----|

G|-------------------------------------------------------------------------|
D|-------------------------------------------------------------------------|
A|-22222222----------------------------22222222-44444444-------------------|
E|----------22222222-44444444-00000000-------------------44444444-00000000-|

Ending
G|-------------------------|
D|-------------------------|
A|-------------------------|
E|-0000000000000000-7\-----|

Enjoy!

Lyrics:

Up in smoke pop goes the culture 
The tension blew it up
While choking from a bleeding ulcer
We eventually threw it up

So what went wrong?
Where's the voice of reason?
It's long gone
We lost it long ago

Apathy plus-sized fill the void of motivation
I can hardly breathe at all

Confusion's, all I see
Frustration, surrounds me
Solutions, bid farewell
Sedation, what the hell?

I broke the mirror to the past
To find what I was looking for
The bleeding heart of broken glass
Is all I've got and nothing 

More regrets
Short of no correction
Paid my debts
To anxiety

The iron lung collapse
From the pressure and the swelling
I can hardly breathe at all

Confusion's, all I see
Frustration, surrounds me
Solutions, bid farewell
Sedation, what the hell?

Confusion's, all I see
Frustration, surrounds me
Solutions, bid farewell
Sedation, what the hell?

Dead end roads
With warning signs
Destination nowhere
In sight

Divided we stand
Together we fall
There isn't a god
That can save us all

So don't pray on your knees
Just beg on your hands
There is no belief
In this promised land

Divided we stand
Together we fall
There isn't a god
That can save us all

So don't pray on your knees
Just beg on your hands
There is no belief
In this promised land

There is no belief

Confusion's, all I see
Frustration, surrounds me
Solutions, bid farewell
Sedation, what the hell?

Confusion's, all I see
Frustration, surrounds me
Solutions, bid farewell
Sedation, what the hell?

            
            
Suggest correction
Creating personal tab
Creating personal tab
You can edit any tab online and save it as your Personal.

You can edit, replace or remove any tab part or add personal notes – all changes will be seen only by you.

Personal tabs can be accessed anytime from any device, even offline.
Learn more »
Give kudos to tab author, rate the tab!
1 2 3 4 5
comments
print report bad tab
2 comments total.
0 reply
aiden4140 65 Jan 12, 2008 03:05 AM

nice tab

0 reply
PlusBlink44 10 Feb 18, 2008 10:30 AM

nice

guest
You may want to rate the tab now too:
select rating
Wanna post a correction for this tab? Suggest correction