Oops, an error
Loading. Please wait.

Dear Father bass

version 1
version 1

Whole song

Interactive

by Sum 41
2,982 views 1 this week
2 commentsread comments
1 2 3 4 5
2 more votes to show rating
add to favorites
×
Save as Personal and add changes to this tab that will be seen only by you. Learn more ›
×
You can save this tab as Personal to edit and correct it or add notes. All changes will be seen only by you. Learn more »
launch autoscroll
font size
0
reset
guitar tuner
edit
Autoscroll
slow
fast
+/-
esc
set tempo
stop
Author
Difficulty
Cone is a legend, but i based this on the guitar.
Emily's quite cool [=
Please rate me [=

Intro
G|-----------------------------------------------------------------|
D|-----------------------------------------------------------------| x2
A|-2-2-2-2-4-4-4-4-6-6-6-6-6-6-6-6-4-4-4-4-6-6-6-6-2-2-2-2-2-2-2-2-|
E|-----------------------------------------------------------------|

Verse
G|--------------------------|
D|--------------------------|
A|--2~----------2~----------|
E|-----2~-4~-0~----2~-4~-0~-|

G|-----------------------------------------------------------------|
D|-----------------------------------------------------------------| x2
A|-2-2-2-2-4-4-4-4-6-6-6-6-6-6-6-6-4-4-4-4-6-6-6-6-2-2-2-2-2-2-2-2-|
E|-----------------------------------------------------------------|

G|--------------------------|
D|--------------------------|
A|--2~----------2~----------|
E|-----2~-4~-0~----2~-4~-0~-|

G|-----------------------------------------------------------------|
D|-----------------------------------------------------------------| x2
A|-2-2-2-2-4-4-4-4-6-6-6-6-6-6-6-6-4-4-4-4-6-6-6-6-2-2-2-2-2-2-2-2-|
E|-----------------------------------------------------------------|

Chorus
G|-----------------------------------------------------------------|
D|-----------------------------------------------------------------|x3
A|-2-2-2-2-2-2-2---------------------------------------------------|
E|---------------2-2-2-2-2-2-2-2-4-4-4-4-4-4-4-4-0-0-0-0-0-0-0-----|

G|--------------------------|
D|--------------------------|
A|--2~----------2~----------|
E|-----2~-4~-0~----2~-4~-0~-|

G|-----------------------------------------------------------------|
D|-----------------------------------------------------------------| x2
A|-2-2-2-2-4-4-4-4-6-6-6-6-6-6-6-6-4-4-4-4-6-6-6-6-2-2-2-2-2-2-2-2-|
E|-----------------------------------------------------------------|

G|-----------------------------------------------------------------|
D|-----------------------------------------------------------------|x4
A|-2-2-2-2-2-2-2---------------------------------------------------|
E|---------------2-2-2-2-2-2-2-2-4-4-4-4-4-4-4-4-0-0-0-0-0-0-0-----|

G|-----------------------------------------------------------------|
D|-----------------------------------------------------------------| x2
A|-2-2-2-2-4-4-4-4-6-6-6-6-6-6-6-6-4-4-4-4-6-6-6-6-2-2-2-2-2-2-2-2-|
E|-----------------------------------------------------------------|

G|--------------------------------------|
D|--------------------------------------|
A|--2~----------2~----------2~----------|
E|-----2~-4~-0~----2~-4~-0~----2~-4~-0~-|

G|-----------------------------------------------------------------|
D|-----------------------------------------------------------------|x4
A|-2-2-2-2-2-2-2---------------------------------------------------|
E|---------------2-2-2-2-2-2-2-2-4-4-4-4-4-4-4-4-0-0-0-0-0-0-0-----|

G|-------|
D|-------|
A|-------|
E|-0~~~~-|



            
            
Suggest correction
Creating personal tab
Creating personal tab
You can edit any tab online and save it as your Personal.

You can edit, replace or remove any tab part or add personal notes – all changes will be seen only by you.

Personal tabs can be accessed anytime from any device, even offline.
Learn more »
Give kudos to tab author, rate the tab!
1 2 3 4 5
comments
print report bad tab
2 comments total.
+1 reply
Squirrel1993 506 Feb 27, 2008 06:26 PM

Pretty Good
live Cone usually plays the higher octive of E instead of playing an open string
for the intro its:
G|-----------------------------------------------------------------|
D|-----------------------------------------------------------------| A|-2-2-2-2-4-4-4-4-6-6-6-6-6-6-6-6-4-4-4-4-6-6-6-6-2-2-2-2-2-2-2-2-|
E|-----------------------------------------------------------------|

G|-----------------------------------------------------------------|
D|-----------------------------------------------------------------| A|-2-2-2-2-1-1-1-1-------------------------------------------------|
E|-----------------4-4-4-4-4-4-4-4-2-2-2-2-2-2-2-2-0-0-0-0-0-0-0-0-|

0 reply
thunderhawk 535 Jul 02, 2008 05:05 PM

thats really good exept i cant hear the bass here G|--------------------------------------|
D|--------------------------------------|
A|--2~----------2~----------2~----------|
E|-----2~-4~-0~----2~-4~-0~----2~-4~-0~-|
so i dont know if you acually play but w/e still a good tab

guest
You may want to rate the tab now too:
select rating
Wanna post a correction for this tab? Suggest correction