Oops, an error
Loading. Please wait.
We have an official Fake My Own Death tab made by UG professional guitarists. Check out the tab »
×
by Sum 41
1,411 views 6 this week
1 commentread comment
1 2 3 4 5
x 4
add to favorites
×
Save as Personal and add changes to this tab that will be seen only by you. Learn more ›
×
You can save this tab as Personal to edit and correct it or add notes. All changes will be seen only by you. Learn more »
launch autoscroll
font size
0
reset
guitar tuner
edit
Autoscroll
slow
fast
+/-
esc
set tempo
stop
Artist: Sum 41
Album: 13 Voices
Title: Fake My Own Death
Tuning: Drop D


[Intro]

G|---------------------------------------------------------------------------|
D|---------------------------------------------------------------------------|
A|---------------------------------------------------------------------------|
D|---0-0-X4------------------------------------------------------------------|


[Pre-Verse]

G|---------------------------------------------------------------------------|
D|---------------------------------------------------------------------------|
A|--5-5-5-5-5-5--------------------------------------------------------------|
D|---------------0-0---------------------------------------------------------|(x4)

G|---------------------------------------------------------------------------|
D|---------------------------------------------------------------------------|
A|--5-5-5-5-5-5--------------------------------------------------------------|
D|---------------0-0---------------------------------------------------------|(x7)


[Verse]

G|---------------------------------------------------------------------------|
D|---------------------------------------------------------------------------|
A|---5-5-5-5-X2-----------------------------3-3-3-3-X2-----------------------|
D|----------------8-8-8-8-X2---3-3-3-3-X2------------------------------------|(x2)


[Intro]

G|---------------------------------------------------------------------------|
D|---------------------------------------------------------------------------|
A|---------------------------------------------------------------------------|
D|--0-0-X4-------------------------------------------------------------------|


[Pre-Verse]

G|---------------------------------------------------------------------------|
D|---------------------------------------------------------------------------|
A|--5-5-5-5-5-5--------------------------------------------------------------|
D|---------------0-0---------------------------------------------------------|(x7)


[Verse]

G|---------------------------------------------------------------------------|
D|---------------------------------------------------------------------------|
A|---5-5-5-5-X2-----------------------------3-3-3-3-X2-----------------------|
D|----------------8-8-8-8-X2---3-3-3-3-X2------------------------------------|(x2)


[Pre-Solo]

G|---------------------------------------------------------------------------|
D|---------------------------------------------------------------------------|
A|---------------------------------------------------------------------------|
D|--0-0-X4-------------------------------------------------------------------|

G|---------------------------------------------------------------------------|
D|---------------------------------------------------------------------------|
A|---------------------------------------------------------------------------|
D|--0-0-0-0-0---0-0-0-0-0---0-0-0-0-0--0-0-0-0-0-0-0-0-0-0-0-0---------------|


[Solo]

G|---------------------------------------------------------------------------|
D|---------------------------------------------------------------------------|
A|---5-5-5-5-X2---3-3-3-3-X2-------------------------------------------------|
D|-----------------------------3-3-3-3-X2---5-5-5-5-X2-----------------------|(x4)


[Verse]

G|---------------------------------------------------------------------------|
D|---------------------------------------------------------------------------|
A|---5-5-5-5-X2-----------------------------3-3-3-3-X2-----------------------|
D|----------------8-8-8-8-X2---3-3-3-3-X2------------------------------------|(x2)


[Outro]

G|---------------------------------------------------------------------------|
D|---------------------------------------------------------------------------|
A|---------------------------------------------------------------------------|
D|--0-0--0-0--0-0-0-0--------------------------------------------------------|
Suggest correction
Creating personal tab
Creating personal tab
You can edit any tab online and save it as your Personal.

You can edit, replace or remove any tab part or add personal notes – all changes will be seen only by you.

Personal tabs can be accessed anytime from any device, even offline.
Learn more »
comments
print report bad tab
1 comment total.
0 reply
Jernimo 95 Jun 24, 2017 09:58 AM

Seriously, copy-pasting was too much of an effort?

guest
You may want to rate the tab now too:
select rating
Wanna post a correction for this tab? Suggest correction