Oops, an error
Loading. Please wait.
We have an official Fake My Own Death tab made by UG professional guitarists. Check out the tab »
×
by Sum 41
13,822 views 72 this week
6 commentsread comments
1 2 3 4 5
x 10
add to favorites
×
Save as Personal and add changes to this tab that will be seen only by you. Learn more ›
×
You can save this tab as Personal to edit and correct it or add notes. All changes will be seen only by you. Learn more »
launch autoscroll
font size
0
reset
how to read this tab
guitar tuner
edit
Autoscroll
slow
fast
+/-
esc
set tempo
stop
Artist: Sum 41
Album: 13 Voices
Title: Fake My Own Death
Tuning: Drop D

[Intro]
Riff A
e|-----------------------------------------------------------------------------------------------|
B|-----------------------------------------------------------------------------------------------|
G|-----------------------------------------------------------------------------------------------|
D|-0-0-------------------------------------0-0---------------------------------------------------|
A|-0-0-------------------------------------0-0---------------------------------------------------|
D|-0-0--0-10h12-0-10h12-0-10h12-0-10h12----0-0--0-15h17-0-15h17-0-15h7-0-15h17-------------------|

Riff B
e|-----------------------------------------------------------------------------------------------|
B|-----------------------------------------------------------------------------------------------|
G|-----------------------------------------------------------------------------------------------|
D|-0-0-------------------------------------0-0---------------------------------------------------|
A|-0-0-------------------------------------0-0---------------------------------------------------|
D|-0-0--0-0-15-0-14-0-12-0-10-0-8-7h8-0----0-0--0-10h12-0-10h12-0-10h12-0-10h12------------------|

[Pre-verse]
Lead Guitar: Play the intro riff
Rhythm Guitar:(Flanger guitar effect)
e|---------------------------------------------------------------------------------------------------------|
B|---------------------------------------------------------------------------------------------------------|
G|-7-7-7-7-7-7-7-7--10-10-10-10-10-10-10-10-12--12--12--12--12--12--12--12--14--14--14--14--14--14--14--14-|
D|-X-X-X-X-X-X-X-X--X--X--X--X--X--X--X--X--X---X---X---X---X---X---X---X---X---X---X---X---X---X---X---X--|
A|-5-5-5-5-5-5-5-5--8--8--8--8--8--8--8--8--10--10--10--10--10--10--10--10--12--12--12--12--12--12--12--12-|
D|---------------------------------------------------------------------------------------------------------|

[Verse]
e|-----------------------------------------------------------------------------------------------|
B|-----------------------------------------------------------------------------------------------|
G|-----------------------------------------------------------------------------------------------|
D|-----------------------------------------------------------------------------------------------|
A|-----------------------------------------------------------------------------------------------|
D|-0-10h12-0-10h12-0-10h12-0-10h12------0-15h17-0-15h17-0-15h7-0-15h17---------------------------|

e|-----------------------------------------------------------------------------------------------|
B|-----------------------------------------------------------------------------------------------|
G|-----------------------------------------------------------------------------------------------|
D|-----------------------------------------------------------------------------------------------|
A|-----------------------------------------------------------------------------------------------|
D|-0-15-0-14-0-12-0-10-0-8-7h8p0--------0-10h12-0-10h12-0-10h12-0-10h12--------------------------|

e|-----------------------------------------------------------------------------------------------|
B|-----------------------------------------------------------------------------------------------|
G|-----------------------------------------------------------------------------------------------|
D|-----------------------------------------------------------------------------------------------|
A|-----------------------------------------------------------------------------------------------|
D|-0-10h12-0-10h12-0-10h12-0-10h12------0-15h17-0-15h17-0-15h7-0-15h17---------------------------|

e|-----------------------------------------------------------------------------------------------|
B|-----------------------------------------------------------------------------------------------|
G|-----------------------------------------------------------------------------------------------|
D|--------------------------------------8---10---------------------------------------------------|
A|--------------------------------------8---10---------------------------------------------------|
D|-0-15-0-14-0-12-0-10-0-8-7h8p0--------8---10---------------------------------------------------|


[Chorus]
e|---------------------------------------------------------------------------|
B|---------------------------------------------------------------------------|
G|---------------------------------------------------------------------------|
D|-0-0-0-0-0-0-0-0--8-8-8-8-8-8-8-8--3-3-3-3-3-3-3-3-3--2-2-2-2-2-2-2-2------|
A|-0-0-0-0-0-0-0-0--8-8-8-8-8-8-8-8--3-3-3-3-3-3-3-3-3--2-2-2-2-2-2-2-2------|
D|-0-0-0-0-0-0-0-0--8-8-8-8-8-8-8-8--3-3-3-3-3-3-3-3-3--2-2-2-2-2-2-2-2------|

[Bridge]
e|---------------------------------------------------------------------------|
B|---------------------------------------------------------------------------|
G|---------------------------------------------------------------------------|
D|-0-0-0-0--0-0-0-0--0-0-0-0--0-0-0-0--0-0-0-0--0-0-0-0--0-0-0-0-------------|
A|-0-0-0-0--0-0-0-0--0-0-0-0--0-0-0-0--0-0-0-0--0-0-0-0--0-0-0-0-------------|
D|-0-0-0-0--0-0-0-0--0-0-0-0--0-0-0-0--0-0-0-0--0-0-0-0--0-0-0-0--10br-------|

[Solo] X8
Lead Guitar
e|-------------------------------------------------------|
B|-------------------------------------------------------|
G|-------------------------------------------------------|
D|-------------------------------------------------------|
A|-------------------------------------------------------|
D|-0-0-12-0-10-0-15-0-13-0-12----------------------------|

Rhythm Guitar
e|-------------------------------------------------------|
B|-------------------------------------------------------|
G|-7-7-7-7-7-7-7-7-7-7-7-7-7-7-7-7-7-7-7-7-7-7-7-7-7-7-7-|
D|-X-X-X-X-X-X-X-X-X-X-X-X-X-X-X-X-X-X-X-X-X-X-X-X-X-X-X-|
A|-5-5-5-5-5-5-5-5-5-5-5-5-5-5-5-5-5-5-5-5-5-5-5-5-5-5-5-|
D|-------------------------------------------------------|

[Bridge 2]
Rhythm Guitar (repeat)
e|----------------------------------------------------------------------------|
B|----------------------------------------------------------------------------|
G|-7~---9~---10~--12~--14~----------------------------------------------------|
D|-X~---X~---X~---X~---X~-----------------------------------------------------|
A|-5~---7~---8~---10~--12~----------------------------------------------------|
D|----------------------------------------------------------------------------|

Lead Guitar (repeat)
e|---------------------------------------------------------------------------|
B|---------------------------------------------------------------------------|
G|---------------------------------------------------------------------------|
D|-0--2--3--5--7-------------------------------------------------------------|
A|-0--2--3--5--7-------------------------------------------------------------|
D|-0--2--3--5--7-------------------------------------------------------------|

[Outro]
End with intro riff b

| x   Dead note
| g   Grace note
| (n) Ghost note
| h   Hammer-on
| p   Pull-off
| r   Release
| >   Accented note
| t   Tapping
| b   Bend
| br  Bend release
| pb  Pre-bend
| pbr Pre-bend release
| /   Slide up
| \   Slide down
| ~   Vibrato
| s   Slap
| P   Pop
| PM  Palm mute
| TR  Trill
| N   Tremolo

************************************

            
            
Suggest correction
Creating personal tab
Creating personal tab
You can edit any tab online and save it as your Personal.

You can edit, replace or remove any tab part or add personal notes – all changes will be seen only by you.

Personal tabs can be accessed anytime from any device, even offline.
Learn more »
comments
print report bad tab
6 comments total. Showing first comments.
+3 reply
nikola9099 10 Jun 29, 2016 10:43 AM

i love the tab so far, but i think this part is played like this:
D|-0-0-15-0-14-0-12-0-14-0-12-10-0-
instead of this :
D|-0-0-15-0-14-0-12-0-10-0-8-7h8-0--
but i may be wrong but try this one and say whether i was right or wrong :) thx anyway for good tab !!!!! keep it up !!!!

+1 reply
nikola9099 10 Jun 29, 2016 10:56 AM

and also i think when Deryck sings 'you've got to'
the tab goes like this:
e|--------------------
B|--------------------
G|-3------5----------
D|-3------5---------
A|-1------3--------
D|---------------

0 reply
CedHild 32 Aug 15, 2016 02:53 PM

Did anyone notice that the chord progression in the chorus is the same as Pieces? lel

guest
You may want to rate the tab now too:
select rating
Wanna post a correction for this tab? Suggest correction