Oops, an error
Loading. Please wait.
We have an official Fake My Own Death tab made by UG professional guitarists. Check out the tab »
×
by Sum 41
1,090 views 9 this week
2 commentsread comments
1 2 3 4 5
1 last vote to show rating
add to favorites
×
Save as Personal and add changes to this tab that will be seen only by you. Learn more ›
×
You can save this tab as Personal to edit and correct it or add notes. All changes will be seen only by you. Learn more »
launch autoscroll
font size
0
reset
transpose
0
reset
simplify chords
display chords
guitar tuner
edit
Autoscroll
slow
fast
+/-
esc
set tempo
stop
Strumming Is this strumming pattern correct? Yes No
Chorus 115 bpm
1
 
&
 
2
 
&
 
Listen
Beginning riff

e|---||-------------------------------------------|-----------------------------------------|
B|---||-------------------------------------------|-----------------------------------------|
G|---||-o-----------------------------------------|-----------------------------------------|
D|-0-||-o-----0---------------------------------0-|-----0---------------------------------0-|
A|-0-||-------0---------------------------------0-|-----0---------------------------------0-|
D|-0-||-------0-0-10-12-0-10-12-0-10-12-0-10-12-0-|-----0-0-15-17-0-15-17-0-15-17-0-15-17-0-|
   a      1 e + a 2  e  + a  3  e +  a  4 e  +  a   1 e + a 2  e  + a  3  e +  a  4 e  +  a

e|---------------------------------------|-------------------------------------------||
B|---------------------------------------|-------------------------------------------||
G|---------------------------------------|-----------------------------------------o-||
D|-----0-------------------------------0-|-----0---------------------------------0-o-||
A|-----0-------------------------------0-|-----0---------------------------------0---||
D|-----0---15-0-14-0-12-0-14-0-12-10-7-0-|-----0-0-10-12-12-12-10-12-12-12-3-5-7-0---||
   1 e + a 2  e +  a 3  e +  a 4  e  + a   1 e + a 2  e  +  a  3  e  +  a  4 e + a


Interlude 2/Bridge 1 riff (adapted)

e|-------------------------------------|--------------------------------------|
B|-------------------------------------|--------------------------------------|
G|-------------------------------------|--------------------------------------|
D|-0-----0-----------------------------|-0---0--------------------------------|
A|-0-----0-----------------------------|-0---0--------------------------------|
D|-0-----0---0-12-0-0-13-0-0-12-0-10-0-|-0---0-13-0-0-10-0-0-12-0-0-12-0-10-0-|
   1 e + a 2 e +  a 3 e  + a 4 e + a     1 e + a  2 e +  a 3 e  + a 4  e +  a

e|--------------------------------------|--------------------------------------|
B|--------------------------------------|--------------------------------------|
G|--------------------------------------|--------------------------------------|
D|-0---0--------------------------------|-0---0--------------------------------|
A|-0---0--------------------------------|-0---0--------------------------------|
D|-0---0-15-0-0-12-0-0-13-0-0-12-0-10-0-|-0---0-13-0-0-10-0-0-12-0-0-12-0-10-0-|
   1        2        3        4           1        2        3        4

* chords: quick mute


ORDER: I V1 C1 INT1 V2 C2 INT2 B1 INT3 B2 FC O


[INTRO]
 Dm |   |   |   |
(full band)
 Dm |   |   |   |


[VERSE 1]
Dm
  All bets are off, but you still
  think that you've gotta a right
  Well, you're lucky days are numbered now...
  and you're to blame
  You built a castle of sand
  shaking the devil's hand
                                               Bb *
  Well, at least I've still got my soul to sell


[CHORUS]
        F/A * C * Dm          Bb
 you've got   to  take me away
                   F
'cause I wanna feel (wanna feel)
                  C/E
 something that's real (thing that’s real... and)
 Dm            Bb
 Help me escape
                 F
'cause I wanna be (I’ll take my last breath left)
           C/E
 to be free   (I just wanna fake my own death)


[INTERLUDE 1] (riff)
 Dm |   |   |   |


[VERSE 2]
Dm
  You played your part of the whore
  You got some kinda nerve, or
  have you forgotten I don't forget?
  and you're too late...
  You walk beside the dead where
  the angels never tread
                                          Bb *
  Well, at least I've still got a soul to sell


[CHORUS 2]
        F/A * C * Dm          Bb
 you've got   to  take me away
                   F
'cause I wanna feel (wanna feel)
                  C/E
 something that's real (thing that’s real... and)
 Dm            Bb
 Help me escape
                 F
'cause I wanna be (I’ll take my last breath left)
           C/E
 to be free   (I just wanna fake my own death)


[INTERLUDE 2]
Dm |   |   |   |


[BRIDGE 1]
        Dm
There's nowhere to run
from hell and above
I swear to a god
that someday there will be blood


[INTERLUDE 3]
Dm | C | F6 | Gm |
Dm | C | F6 | Gm |


[BRIDGE 2]
Dm             C/E         F
  It all comes down in the end
              Gm      Am     Dm
  In spite of me, you do it again
               C/E        F
  It all comes down in the end
              Gm     Am
  In spite of you, I do it again


[FINAL CHORUS]
      ( Am )   Dm          Bb
 you've got to take me away
                   F
'cause I wanna feel (wanna feel)
                  C/E
 something that's real (thing that’s real... and)
 Dm            Bb
 Help me escape
                 F
'cause I wanna be (I’ll take my last breath left)
           C/E
 to be free   (I just wanna fake my own death)


[OUTRO]
Dm | Dm | Dm n.c. |
Suggest correction
Creating personal tab
Creating personal tab
You can edit any tab online and save it as your Personal.

You can edit, replace or remove any tab part or add personal notes – all changes will be seen only by you.

Personal tabs can be accessed anytime from any device, even offline.
Learn more »
Give kudos to tab author, rate the tab!
1 2 3 4 5
comments
print report bad tab
2 comments total.
0 reply
ook3vin 265 Sep 12, 2016 01:49 PM

Nice, thanks homeslice !

guest
You may want to rate the tab now too:
select rating
Wanna post a correction for this tab? Suggest correction