Oops, an error
Loading. Please wait.
We have an official Fake My Own Death tab made by UG professional guitarists. Check out the tab »
×
by Sum 41
2,578 views 6 this week
1 commentread comment
1 2 3 4 5
3 more votes to show rating
add to favorites
×
Save as Personal and add changes to this tab that will be seen only by you. Learn more ›
×
You can save this tab as Personal to edit and correct it or add notes. All changes will be seen only by you. Learn more »
launch autoscroll
font size
0
reset
how to read this tab
guitar tuner
edit
Autoscroll
slow
fast
+/-
esc
set tempo
stop
DROP D TUNING

The first single off of 13 Voices and it is awesome, love the way Dave and Tom trade lead in the song.
Listen to the song for timing, and the lead in the bridge is a mixture of Riff A and Riff B and I can't fully 
nail down the pattern of it. I apologize for any mistakes.

[Intro]

PART 1

Guitar 1

e|--------------------------------------------------------------------------------|
B|--------------------------------------------------------------------------------|
G|--------------------------------------------------------------------------------|
D|--------------------------------------------------------------------------------|
A|--------------------------------------------------------------------------------|
D|----10h12-10h12-10h12-10h12-10h12-10h12----15h17-15h17-15h17-15h17-15h17-15h17--|

e|---------------------------------------------------------------------------|
B|---------------------------------------------------------------------------|
G|---------------------------------------------------------------------------|
D|---------------------------------------------------------------------------|
A|---------------------------------------------------------------------------|
D|----15p0-14p0-12p0-14p0-12/10---10h12-10h12-10h12-10h12-10h12-10h12--------|

Guitar 2 & 3

e|---------------------------------------------------------------------------|
B|---------------------------------------------------------------------------|
G|---------------------------------------------------------------------------|
D|-0--0-----------0--0---------0--0--------0--0------------------------------|
A|-0--0-----------0--0---------0--0--------0--0------------------------------|
D|-0--0-----------0--0---------0--0--------0--0------------------------------|


PART 2

Guitar 1

e|--------------------------------------------------------------------------------|
B|--------------------------------------------------------------------------------|
G|--------------------------------------------------------------------------------|
D|--------------------------------------------------------------------------------|
A|--------------------------------------------------------------------------------|
D|----10h12-10h12-10h12-10h12-10h12-10h12----15h17-15h17-15h17-15h17-15h17-15h17--|

e|---------------------------------------------------------------------------|
B|---------------------------------------------------------------------------|
G|---------------------------------------------------------------------------|
D|---------------------------------------------------------------------------|
A|---------------------------------------------------------------------------|
D|----15p0-14p0-12p0-14p0-10p0----10~----------------------------------------|

Guitar 2

e|---------------------------------------------------------------------------|
B|---------------------------------------------------------------------------|
G|----------------------------------------------5~---------------------------|
D|-0--0-----------0--0---------0--0--------0--0-5~---------------------------|
A|-0--0-----------0--0---------0--0--------0--0-3~---------------------------|
D|-0--0-----------0--0---------0--0--------0--0------------------------------|

Guitar 3(W/ effects)

e|---------------------------------------------------------------------------|
B|---------------------------------------------------------------------------|
G|-7-------------------------------------------------------------------------|
D|-x-(strum until verse)-----------------------------------------------------|
A|-5-------------------------------------------------------------------------|
D|---------------------------------------------------------------------------|


[Verse]

Guitar 1x2

e|--------------------------------------------------------------------------------|
B|--------------------------------------------------------------------------------|
G|--------------------------------------------------------------------------------|
D|--------------------------------------------------------------------------------|
A|--------------------------------------------------------------------------------|
D|----10h12-10h12-10h12-10h12-10h12-10h12----15h17-15h17-15h17-15h17-15h17-15h17--|

                                       
e|---------------------------------------------------------------------------|
B|---------------------------------------------------------------------------|
G|---------------------------------------------------------------------------|
D|--------------------------------------------------------------------8-7----|
A|--------------------------------------------------------------------8-7----|
D|----15p0-14p0-12p0-14p0-10p0----10-(10-10-10-10-10-10-10-8-8-8-8)---8-7----|
                                       1st time only              2nd time only

[Chorus]

Guitar 1, 2, & 3

D5-Bb5-F5-C5x2


[Intro Part 2]


[Verse 2]

Guitar 1x2

e|--------------------------------------------------------------------------------|
B|--------------------------------------------------------------------------------|
G|--------------------------------------------------------------------------------|
D|--------------------------------------------------------------------------------|
A|--------------------------------------------------------------------------------|
D|----10h12-10h12-10h12-10h12-10h12-10h12----15h17-15h17-15h17-15h17-15h17-15h17--|

                                       
e|---------------------------------------------------------------------------|
B|---------------------------------------------------------------------------|
G|---------------------------------------------------------------------------|
D|--------------------------------------------------------------------8-7----|
A|--------------------------------------------------------------------8-7----|
D|----15p0-14p0-12p0-14p0-10p0----10-(10-10-10-10-10-10-10-8-8-8-8)---8-7----|
                                       1st time only              2nd time only

Guitar 2(2nd time only)

e|---------------------------------------------------------------------------|
B|---------------------------------------------------------------------------|
G|-7-------------------------------------------------------------------------|
D|-x-(strum until 8-7)-------------------------------------------------------|
A|-5--------------8-7--------------------------------------------------------|
D|----------------8-7--------------------------------------------------------|


[Chorus]


[Bridge]

Part 1

Guitar 1

e|---------------------------------------------------------------------------|
B|---------------------------------------------------------------------------|
G|---------------------------------------------------------------------------|
D|---------------------------------------------------------------------------|
A|---------RIFF A------------------------------RIFF B------------------------|
D|-00 12p0-13p0-12p0-10p0-12p0-------15p0-13p0-12p0-10p0-12p0------10b-------|


Guitar 2 & 3

e|---------------------------------------------------------------------------|
B|---------------------------------------------------------------------------|
G|---------------------------------------------------------------------------|
D|-0-0----0-0----0-0----0-0----0-0-0-0----0-0-0-0----0-----------------------|
A|-0-0----0-0----0-0----0-0----0-0-0-0----0-0-0-0----0-(Strum until Part 2)--|
D|-0-0----0-0----0-0----0-0----0-0-0-0----0-0-0-0----0-----------------------|


Part 2

Guitar 1

e|---------------------------------------------------------------------------|
B|---------------------------------------------------------------------------|
G|---------------------------------------------------------------------------|
D|---------------------------------------------------------------------------|
A|---------RIFF A------------------------------RIFF B------------------------|
D|-00 12p0-13p0-12p0-10p0-12p0-------15p0-13p0-12p0-10p0-12p0----------------|


Guitar 2 x2

e|---------------------------------------------------------------------------|
B|---------------------------------------------------------------------------|
G|----------55555555---------------------------------------------------------|
D|-00000000-55555555-33333333-55555555---------------------------------------|
A|-00000000-33333333-33333333-55555555---------------------------------------|
D|-00000000----------33333333-55555555---------------------------------------|


Guitar 3

e|---------------------------------------------------------------------------|
B|---------------------------------------------------------------------------|
G|-7-------------------------------------------------------------------------|
D|-x-(strum until Part 3)----------------------------------------------------|
A|-5-------------------------------------------------------------------------|
D|---------------------------------------------------------------------------|


Part 3

Guitar 1, 2, & 3 x2

e|---------------------------------------------------------------------------|
B|---------------------------------------------------------------------------|
G|---------5-----------------------------------------------------------------|
D|-0-------5-------3-------5---7---------------------------------------------|
A|-0-------3-------3-------5---7---------------------------------------------|
D|-0---------------3-------5---7---------------------------------------------|

[Chorus]


[Outro]

Guitar 1

e|--------------------------------------------------------------------------------|
B|--------------------------------------------------------------------------------|
G|--------------------------------------------------------------------------------|
D|----------------------------------------------------------------------0---------|
A|----------------------------------------------------------------------0---------|
D|----10h12-10h12-10h12-10h12-10h12-10h12----15p0-14p0-12p0-14p0-12/10--0---------|


Guitar 2 & 3

e|---------------------------------------------------------------------------|
B|---------------------------------------------------------------------------|
G|---------------------------------------------------------------------------|
D|-0-0----0-0---0------------------------------------------------------------|
A|-0-0----0-0---0------------------------------------------------------------|
D|-0-0----0-0---0------------------------------------------------------------|



************************************

| x   Dead note
| g   Grace note
| (n) Ghost note
| h   Hammer-on
| p   Pull-off
| r   Release
| >   Accented note
| t   Tapping
| b   Bend
| br  Bend release
| pb  Pre-bend
| pbr Pre-bend release
| /   Slide up
| \   Slide down
| ~   Vibrato
| s   Slap
| P   Pop
| PM  Palm mute
| TR  Trill
| N   Tremolo

************************************

            
            
Suggest correction
Creating personal tab
Creating personal tab
You can edit any tab online and save it as your Personal.

You can edit, replace or remove any tab part or add personal notes – all changes will be seen only by you.

Personal tabs can be accessed anytime from any device, even offline.
Learn more »
Give kudos to tab author, rate the tab!
1 2 3 4 5
comments
print report bad tab
1 comment total.
0 reply
nikola9099 10 Jun 30, 2016 04:14 AM

love this tab, but i think intro should be :( with opened string,'0')

D|---0-10h12-0-10h12-0-10h12-0-10h12-0-10h12-0-10h12----0-15h17-0-15h17-0-15h17-0-15h17-0-15h17-0-15h17--|

D|--00-15p0-14p0-12p0-14p0-12/10-
thx anyway for tabbing in such a short time !! :D

guest
You may want to rate the tab now too:
select rating
Wanna post a correction for this tab? Suggest correction