Oops, an error
Loading. Please wait.
We have an official Fake My Own Death tab made by UG professional guitarists. Check out the tab »
×
by Sum 41
991 views 12 this week
no commentswrite comment
1 2 3 4 5
3 more votes to show rating
add to favorites
×
Save as Personal and add changes to this tab that will be seen only by you. Learn more ›
×
You can save this tab as Personal to edit and correct it or add notes. All changes will be seen only by you. Learn more »
launch autoscroll
font size
0
reset
how to read this tab
guitar tuner
edit
Autoscroll
slow
fast
+/-
esc
set tempo
stop
Song:Fake My Own Death
Artist:Sum 41
Album:13 Voices
Tuning:Drop D
Year;2016

The new Sum 41 song has dropped and it's awesome. The riffs are a bit tricky but fun too play. ENJOY!!!
[Intro]

Guitar 1
e|-------------------------------------------------------------------------------------|
B|-------------------------------------------------------------------------------------|
G|-------------------------------------------------------------------------------------|
D|-0-0-----------------------------------0-0-----------------------------------0-0-----|
A|-0-0-----------------------------------0-0-----------------------------------0-0-----|
D|-0-0-0h10h12p0h10h12p0h10h12p0h10h12p0-0-0-0h15h17p0h15h17p0h15h17p0h15h17p0-0-0-----|

e|-------------------------------------------------------------------------------|
B|-------------------------------------------------------------------------------|
G|-------------------------------------------------------------------------------|
D|-------------------------------0-0-----------------------------------0-0-------|
A|-------------------------------0-0-----------------------------------0-0-------|
D|-15p0h14p0h12p0h13p0h12p0h10p0-0-0-0h10h12p0h10h12p0h10h12p0h10h12p0-0-0-------|

Guitar 2
e|---------------------------------------------------------------------------|
B|---------------------------------------------------------------------------|
G|---------------------------------------------------------------------------|
D|-0-0---0-0---0-0---0-0---0-0---0-0-----------------------------------------|
A|-0-0---0-0---0-0---0-0---0-0---0-0-----------------------------------------|
D|-0-0---0-0---0-0---0-0---0-0---0-0-----------------------------------------|

Guitar 3 (This plays when the full band comes in)
e|---------------------------------------------------------------------------------------------------------|
B|---------------------------------------------------------------------------------------------------------|
G|-7-7-7-7-7-7-7-7--10-10-10-10-10-10-10-10-12--12--12--12--12--12--12--12--14--14--14--14--14--14--14--14-|
D|-X-X-X-X-X-X-X-X--X--X--X--X--X--X--X--X--X---X---X---X---X---X---X---X---X---X---X---X---X---X---X---X--|
A|-5-5-5-5-5-5-5-5--8--8--8--8--8--8--8--8--10--10--10--10--10--10--10--10--12--12--12--12--12--12--12--12-|
D|---------------------------------------------------------------------------------------------------------|

[Verse]

Guitar 1
e|--------------------------------------------------------------------------|
B|--------------------------------------------------------------------------|
G|--------------------------------------------------------------------------|
D|--------------------------------------------------------------------------|
A|--------------------------------------------------------------------------|
D|-0h10h12p0h10h12p0h10h12p0h10h12p0-0h15h17p0h15h17p0h15h17p0h15h17p0------|

e|------------------------------------------------------------------------|
B|------------------------------------------------------------------------|
G|------------------------------------------------------------------------|
D|------------------------------------------------------------------------|
A|------------------------------------------------------------------------|
D|-15p0h14p0h12p0h13p0h12p0h10p0-0h10h12p0h10h12p0h10h12p0h10h12p0--------|

"All bets are off but you still..."

Guitar 2 (Hold Chord each time)
e|-------------------------------------------------------------------|
B|-------------------------------------------------------------------|
G|-------------------------------------------------------------------|
D|-0----0----0----0----0---------------------------------------------|
A|-0----0----0----0----0---------------------------------------------|
D|-0----0----0----0----0---------------------------------------------|

Guitar 3
e|---------------------------------------------------------------------------------------------------------|
B|---------------------------------------------------------------------------------------------------------|
G|-7-7-7-7-7-7-7-7--10-10-10-10-10-10-10-10-12--12--12--12--12--12--12--12--14--14--14--14--14--14--14--14-|
D|-X-X-X-X-X-X-X-X--X--X--X--X--X--X--X--X--X---X---X---X---X---X---X---X---X---X---X---X---X---X---X---X--|
A|-5-5-5-5-5-5-5-5--8--8--8--8--8--8--8--8--10--10--10--10--10--10--10--10--12--12--12--12--12--12--12--12-|
D|---------------------------------------------------------------------------------------------------------|
"You built a castle of sand..."

[Chorus](All 3 Guitars play this)
              Dm      Bb
You've got to take me away 
              F
Cause I wanna feel(Wanna feel)
                 C
Something that's real
(Thing that’s real)
Dm        Bb
Help me escape 
              F
(Cause i wanna be) 
I’ll take my last breath 
           C
(Left to be free) 
I just wanna
            Dm
Fake my own death

[Post-Chorus]

Guitar 1
e|-------------------------------------------------------------------------------------|
B|-------------------------------------------------------------------------------------|
G|-------------------------------------------------------------------------------------|
D|-0-0-----------------------------------0-0-----------------------------------0-0-----|
A|-0-0-----------------------------------0-0-----------------------------------0-0-----|
D|-0-0-0h10h12p0h10h12p0h10h12p0h10h12p0-0-0-0h15h17p0h15h17p0h15h17p0h15h17p0-0-0-----|

e|-------------------------------------------------------------------------------|
B|-------------------------------------------------------------------------------|
G|-------------------------------------------------------------------------------|
D|-------------------------------0-0-----------------------------------0-0-------|
A|-------------------------------0-0-----------------------------------0-0-------|
D|-15p0h14p0h12p0h13p0h12p0h10p0-0-0-0h10h12p0h10h12p0h10h12p0h10h12p0-0-0-------|

Guitar 2
e|---------------------------------------------------------------------------|
B|---------------------------------------------------------------------------|
G|---------------------------------------------------------------------------|
D|-0-0---0-0---0-0---0-0---0-0---0-0-----------------------------------------|
A|-0-0---0-0---0-0---0-0---0-0---0-0-----------------------------------------|
D|-0-0---0-0---0-0---0-0---0-0---0-0-----------------------------------------|

Guitar 3 
e|---------------------------------------------------------------------------------------------------------|
B|---------------------------------------------------------------------------------------------------------|
G|-7-7-7-7-7-7-7-7--10-10-10-10-10-10-10-10-12--12--12--12--12--12--12--12--14--14--14--14--14--14--14--14-|
D|-X-X-X-X-X-X-X-X--X--X--X--X--X--X--X--X--X---X---X---X---X---X---X---X---X---X---X---X---X---X---X---X--|
A|-5-5-5-5-5-5-5-5--8--8--8--8--8--8--8--8--10--10--10--10--10--10--10--10--12--12--12--12--12--12--12--12-|
D|---------------------------------------------------------------------------------------------------------|

[Verse] 

[Chorus]

[Bridge]
 
Guitar 1
e|------------------------------------------------------------------|
B|------------------------------------------------------------------|
G|------------------------------------------------------------------|
D|-0-0---0-0---0-0---0-0--------------------------------------------|
A|-0-0---0-0---0-0---0-0--------------------------------------------|
D|-0-0---0-0---0-0---0-0--------------------------------------------|

Guitar 2
e|---------------------------------------------------------------------------|
B|---------------------------------------------------------------------------|
G|---------------------------------------------------------------------------|
D|---------------------------------------------------------------------------|
A|---------------------------------------------------------------------------|
D|-12p0-0-0-0h10p0-0-0-0h12p0-0-0-0h10p0-0-0-0h15p0h14p0h12------------------|

[Breakdown Part 1]
Guitar 1
e|---------------------------------------------------------------------------|
B|---------------------------------------------------------------------------|
G|---------------------------------------------------------------------------|
D|---------------------------------------------------------------------------|
A|---------------------------------------------------------------------------|
D|-12p0-0-0-0h10p0-0-0-0h12p0-0-0-0h10p0-0-0-0h15p0h14p0h12------------------|

Guitar 2
e|---------------------------------------------------------------------------------------------------------|
B|---------------------------------------------------------------------------------------------------------|
G|-7-7-7-7-7-7-7-7--10-10-10-10-10-10-10-10-12--12--12--12--12--12--12--12--14--14--14--14--14--14--14--14-|
D|-X-X-X-X-X-X-X-X--X--X--X--X--X--X--X--X--X---X---X---X---X---X---X---X---X---X---X---X---X---X---X---X--|
A|-5-5-5-5-5-5-5-5--8--8--8--8--8--8--8--8--10--10--10--10--10--10--10--10--12--12--12--12--12--12--12--12-|
D|---------------------------------------------------------------------------------------------------------|

Guitar 3
Dm C F Gm 

[Breakdown Part 2](One guitar strums, one guitar holds the chords)
Dm             C
  It all comes down 
       F
In the end
            Gm
In spite of me
    Am
You do it all again
Dm             C
  It all comes down 
       F
In the end
            Gm
In spite of you
    Am
You do it all again

[Chorus]

[Outro]

Guitar 1
e|---------------------------------------------------------------------------|
B|---------------------------------------------------------------------------|
G|---------------------------------------------------------------------------|
D|---------------------------------------------------------------------------|
A|---------------------------------------------------------------------------|
D|-12p0-0-0-0h10p0-0-0-0h12p0-0-0-0h10p0-0-0-0h15p0h14p0h12------------------|

Guitar 2
e|------------------------------------------------------------------|
B|------------------------------------------------------------------|
G|------------------------------------------------------------------|
D|-0-0---0-0---0-0---0-0--------------------------------------------|
A|-0-0---0-0---0-0---0-0--------------------------------------------|
D|-0-0---0-0---0-0---0-0--------------------------------------------|

************************************

| x   Dead note
| g   Grace note
| (n) Ghost note
| h   Hammer-on
| p   Pull-off
| r   Release
| >   Accented note
| t   Tapping
| b   Bend
| br  Bend release
| pb  Pre-bend
| pbr Pre-bend release
| /   Slide up
| \   Slide down
| ~   Vibrato
| s   Slap
| P   Pop
| PM  Palm mute
| TR  Trill
| N   Tremolo

************************************

            
            
Suggest correction
Creating personal tab
Creating personal tab
You can edit any tab online and save it as your Personal.

You can edit, replace or remove any tab part or add personal notes – all changes will be seen only by you.

Personal tabs can be accessed anytime from any device, even offline.
Learn more »
Give kudos to tab author, rate the tab!
1 2 3 4 5
comments
print report bad tab
guest
You may want to rate the tab now too:
select rating
Wanna post a correction for this tab? Suggest correction