Oops, an error
Loading. Please wait.
We have an official Fat Lip tab made by UG professional guitarists. Check out the tab »
×

Fat Lip tab

version 12
version 12

Whole song

Video

  • High quality, easy to follow video lesson.
by Sum 41
1,565 views 39 this week
2 commentsread comments
1 2 3 4 5
x 4
add to favorites
×
Save as Personal and add changes to this tab that will be seen only by you. Learn more ›
×
You can save this tab as Personal to edit and correct it or add notes. All changes will be seen only by you. Learn more »
launch autoscroll
font size
0
reset
how to read this tab
guitar tuner
backing track
0:00
0:00
edit
Autoscroll
slow
fast
+/-
esc
set tempo
stop
About this tab version
No good rated tabs and a lot of them were E standard. So here's mine. Was this info helpful? Yes No
-------------------------------------------------------------------------------
                     Fat Lip - Sum 41
-------------------------------------------------------------------------------
Tabbed by: CatWithAMustach
E-mail:brentvanderpol@gmail.com


************************************
. - Palm Mute
h - Hammer-On
p - Pull-Off
x - String Mute
/ - Slide Up
\ - Slide Down
************************************

Tuning: Dropped D


Intro (0:00): (Lead - Low Output Distortion)
e|------------------------------------------|
B|------------------------------------------|
G|------------------------------------------|
D|-------6-------------------6--------------| x2
A|-----------------9-------------------9-7--|
D|-6-7-9-----6-7-9-----6-7-9-----6-7-9------|
   . . .     . . .     . . .     . . . 
Second Intro (0:09): (Lead - Distortion)
e|------------------------------------------|
B|------------------------------------------|
G|------------------------------------------|
D|-------6-------------------6--------------| x2
A|-----------------9-------------------9-7--|
D|-6-7-9-----6-7-9-----6-7-9-----6-7-9------|

(Rhythm - Distortion)
e|------------------------------|
B|------------------------------|
G|------------------------------|
D|-------------------------2----| x4
A|------0--2--2----2-0--2--0----|
D|-12\--0--2--2----2-0--2-------|
        | Start Repeats Here

Verse (0:19): (Lead AND Rhythm - Distortion)
e|------------------------------------------------------------------------------------|
B|------------------------------------------------------------------------------------|
G|------------------------------------------------------------------------------------|
D|-------------------------------------------------6p4h6------------------------------| 
A|-2-2---7p6h7-9-9---7-7---7p6h7------------------(7p6h7)-9-9---7-7---7p6h7-----------|
D|-2-2---------9-9---7-7----------7--6--4--2-2------------9-9---7-7----------7--6--4--|
Rhythm guitar plays the same part as Lead, but plays the (x) parts instead of what’s written.

Pre-Chorus (0:29): (Lead AND Rhythm - Distortion)
e|-------------------------------------------------------------------------|
B|-------------------------------------------------------------------------|
G|-----------------------------------------6--------6--------2--------2----|
D|-----2--------2--------2--------2--------6--------6--------2--------2----| 
A|-----2--------2--------2--------2----4-4-4--4-4-4-4--4-0-0-0--0-0-0-0--0-|
D|-2-2-2--2-2-2-2--2-2-2-2--2-2-2-2--2-------------------------------------|
   . .    . . .    . . .    . . .    . . .    . . .    . . .    . . .    .
e|----------------------------------------------------------------|
B|----------------------------------------------------------------|
G|-----------------------------------------6--------6-------------|
D|-----2--------2--------2--------2--------6--------6-------------| 
A|-----2--------2--------2--------2----4-4-4--4-4-4-4--14\--------|
D|-2-2-2--2-2-2-2--2-2-2-2--2-2-2-2--2----------------(14\)-------|
   . .    . . .    . . .    . . .    . . .    . . . 
Chorus (0:39): (Lead - Distortion)
e|---------------------------------------------------------------------|
B|---------------------------------------------------------------------|
G|-13--13-13-11--11-11-9--9-9-9-9-9-9-8-8---x-9-9---x-8-8---x-9-9---9--|
D|------------------------------------------x-------x-------x----------| 
A|-11--11-11-9---9--9--7--7-7-7-7-7-7-6-6---x-7-7---x-6-6---x-7-7---7--|
D|---------------------------------------------------------------------| 

e|---------------------------------------------------------------------|
B|---------------------------------------------------------------------|
G|-13--13-13-11--11-11-9--9-9-9-9-9-9-8-8---x-9-9---x-8-8---x-9-9-9-9--|
D|------------------------------------------x-------x-------x----------| 
A|-11--11-11-9---9--9--7--7-7-7-7-7-7-6-6---x-7-7---x-6-6---x-7-7-7-7--|
D|---------------------------------------------------------------------|

(Rhythm - Distortion)
e|--------------------------------------------------------------|
B|--------------------------------------------------------------|
G|--------------------------------------------------------------|
D|-9--9-9-4--4-4--6--6-6-6-6-6-6--------------------------------| 
A|-7--7-7-2--2-2--4--4-4-4-4-4-4-6---x-7-7---x-6-6---x-7-7---7--|
D|-------------------------------6---x-7-7---x-6-6---x-7-7---7--|

e|--------------------------------------------------------------|
B|--------------------------------------------------------------|
G|--------------------------------------------------------------|
D|-9--9-9-4--4-4--6--6-6-6-6-6-6--------------------------------| 
A|-7--7-7-2--2-2--4--4-4-4-4-4-4-6---x-7-7---x-6-6---x-7-7-7-7--|
D|-------------------------------6---x-7-7---x-6-6---x-7-7-7-7--|

Post Chorus (0:49): (Lead - Distortion)
e|------------------------------------------|
B|------------------------------------------|
G|------------------------------------------|
D|-------6-------------------6--------------| x2
A|-----------------9-------------------9-7--|
D|-6-7-9-----6-7-9-----6-7-9-----6-7-9------|

(Rhythm - Distortion)
e|-------------------------|
B|-------------------------|
G|-------------------------|
D|--------------------2----| x4
A|-0--2--2----2-0--2--0----|
D|-0--2--2----2-0--2-------|

Break (0:58)

Verse (1:01): (Lead AND Rhythm - Distortion)
e|------------------------------------------------------------------------------------|
B|------------------------------------------------------------------------------------|
G|------------------------------------------------------------------------------------|
D|-------------------------------------------------6p4h6------------------------------| 
A|-2-2---7p6h7-9-9---7-7---7p6h7------------------(7p6h7)-9-9---7-7---7p6h7-----------|
D|-2-2---------9-9---7-7----------7--6--4--2-2------------9-9---7-7----------7--6--4--|

Pre-Chorus (1:10): (Lead AND Rhythm - Distortion)
e|-------------------------------------------------------------------------|
B|-------------------------------------------------------------------------|
G|-----------------------------------------6--------6--------2--------2----|
D|-----2--------2--------2--------2--------6--------6--------2--------2----| 
A|-----2--------2--------2--------2----4-4-4--4-4-4-4--4-0-0-0--0-0-0-0--0-|
D|-2-2-2--2-2-2-2--2-2-2-2--2-2-2-2--2-------------------------------------|
   . .    . . .    . . .    . . .    . . .    . . .    . . .    . . .    .
e|----------------------------------------------------------------|
B|----------------------------------------------------------------|
G|-----------------------------------------6--------6-------------|
D|-----2--------2--------2--------2--------6--------6-------------| 
A|-----2--------2--------2--------2----4-4-4--4-4-4-4--14\--------|
D|-2-2-2--2-2-2-2--2-2-2-2--2-2-2-2--2----------------(12\)-------|
   . .    . . .    . . .    . . .    . . .    . . . 
Chorus (1:21): (Lead - Distortion)
e|---------------------------------------------------------------------|
B|---------------------------------------------------------------------|
G|-13--13-13-11--11-11-9--9-9-9-9-9-9-8-8---x-9-9---x-8-8---x-9-9---9--|
D|------------------------------------------x-------x-------x----------| 
A|-11--11-11-9---9--9--7--7-7-7-7-7-7-6-6---x-7-7---x-6-6---x-7-7---7--|
D|---------------------------------------------------------------------| 

e|---------------------------------------------------------------------|
B|---------------------------------------------------------------------|
G|-13--13-13-11--11-11-9--9-9-9-9-9-9-8-8---x-9-9---x-1111--x-9-9-9-9--|
D|------------------------------------------x-------x-------x----------| 
A|-11--11-11-9---9--9--7--7-7-7-7-7-7-6-6---x-7-7---x-9-9---x-7-7-7-7--|
D|---------------------------------------------------------------------|

(Rhythm - Distortion)
e|--------------------------------------------------------------|
B|--------------------------------------------------------------|
G|--------------------------------------------------------------|
D|-9--9-9-4--4-4--6--6-6-6-6-6-6--------------------------------| 
A|-7--7-7-2--2-2--4--4-4-4-4-4-4-6---x-7-7---x-6-6---x-7-7---7--|
D|-------------------------------6---x-7-7---x-6-6---x-7-7---7--|

e|--------------------------------------------------------------|
B|--------------------------------------------------------------|
G|--------------------------------------------------------------|
D|-9--9-9-4--4-4--6--6-6-6-6-6-6--------------------------------| 
A|-7--7-7-2--2-2--4--4-4-4-4-4-4-6---x-7-7---x-6-6---x-7-7-7-7--|
D|-------------------------------6---x-7-7---x-6-6---x-7-7-7-7--|

Post-Chorus (1:30): (Lead AND Rhythm - Distortion)
e|---------------------------------------------------|
B|---------------------------------------------------|
G|---------------------------------------------------|
D|---------------------------------------------------| 
A|-2-2----x--2-2--x-x--2-2----2-2----x--2-2--x-x---7-|
D|-2-2----x--2-2--x-x--2-2----2-2----x--2-2--x-x---7-|

e|--------------------------------------------|
B|--------------------------------------------|
G|--------------------------------------------|
D|--------------------------------------------| 
A|-2-2----x--2-2--x-x--2-2----2-2----x-x-2-2--|
D|-2-2----x--2-2--x-x--2-2----2-2----x-x-2-2--|
                                               
Interlude (1:40): (Lead AND Rhythm - Clean)
e|---------------------0-------------|
B|-----------------------------------|
G|-----9-------9---------------------| x4 Rhythm Repeats
D|---9---9---9---9---6---6------2----| x2 Lead Repeats
A|-7-------6-------4----------0---0--|
D|-----------------------------------|

Back-up (1:50): (Lead - Clean)
e|-0---0---2---2---0---0-----0-----0---0---2---2---0---0-----0------|
B|---0---0---0---0---0---0h2---2p0---0---0---0---0---0---0h2--------|
G|------------------------------------------------------------------|
D|------------------------------------------------------------------| 
A|--------------------------------------------------------------14\-|
D|------------------------------------------------------------------|

Post-Chorus (2:00): (Lead AND Rhythm - Distortion)
e|--------------------------------------------------------------|
B|--------------------------------------------------------------|
G|--------------------------------------------------------------|
D|--------------------------------------------------------------|
A|-0--2--2----2-0--2--6/7--0--2--2----2-0--2--6/7\--------x-x-x-|
D|-0--2--2----2-0--2--6/7--0--2--2----2-0--2--6/7\--------x-x-x-|

e|---------------------------------------------------------------------------------------|
B|---------------------------------------------------------------------------------------|
G|---------------------------------------------------------------------------------------|
D|---------------------------------------------------------------------------------------|
A|-0--2--2----2-0--2--6/7--0--2--2----2-0--2----0--2----0--2--7--0--2--2----2-0--2--6/7\-|
D|-0--2--2----2-0--2--6/7--0--2--2----2-0--2----0--2----0--2--7--0--2--2----2-0--2--6/7\-|

Build-Up (2:21): (Lead AND Rhythm - Distortion)
e|---------------------------------------------------------------------|
B|---------------------------------------------------------------------|
G|-------------------------------------7-7-7-7-7-7-7-7-7-7-7-7-7-7-7-7-|
D|---------------------------------------------------------------------|
A|-----0-0-0-0-0-0-0-0-0-0-0-0-0-0-0-0-5-5-5-5-5-5-5-5-5-5-5-5-5-5-5-5-|
D|-12\-0-0-0-0-0-0-0-0-0-0-0-0-0-0-0-0-0-0-0-0-0-0-0-0-0-0-0-0-0-0-0-0-|    
       . . . . . . . . . . . . . . . .
Chorus (2:27): (Lead - Distortion)
e|---------------------------------------------------------------------|
B|---------------------------------------------------------------------|
G|-13--13-13-11--11-11-9--9-9-9-9-9-9-8-8---x-9-9---x-8-8---x-9-9---9--|
D|------------------------------------------x-------x-------x----------| 
A|-11--11-11-9---9--9--7--7-7-7-7-7-7-6-6---x-7-7---x-6-6---x-7-7---7--|
D|---------------------------------------------------------------------| 

e|---------------------------------------------------------------------|
B|---------------------------------------------------------------------|
G|-13--13-13-11--11-11-9--9-9-9-9-9-9-8-8---x-9-9---x-1111--x-9-9-9-9--|
D|------------------------------------------x-------x-------x----------| 
A|-11--11-11-9---9--9--7--7-7-7-7-7-7-6-6---x-7-7---x-9-9---x-7-7-7-7--|
D|---------------------------------------------------------------------|

(Rhythm - Distortion)
e|--------------------------------------------------------------|
B|--------------------------------------------------------------|
G|--------------------------------------------------------------|
D|-9--9-9-4--4-4--6--6-6-6-6-6-6--------------------------------| 
A|-7--7-7-2--2-2--4--4-4-4-4-4-4-6---x-7-7---x-6-6---x-7-7---7--|
D|-------------------------------6---x-7-7---x-6-6---x-7-7---7--|

e|--------------------------------------------------------------|
B|--------------------------------------------------------------|
G|--------------------------------------------------------------|
D|-9--9-9-4--4-4--6--6-6-6-6-6-6--------------------------------| x2 Repeat both bars twice
A|-7--7-7-2--2-2--4--4-4-4-4-4-4-6---x-7-7---x-6-6---x-7-7-7-7--|
D|-------------------------------6---x-7-7---x-6-6---x-7-7-7-7--|

(Lead - Distortion)
e|--------------------------------------------------------------------------|
B|--------------------------------------------------------------------------|
G|-13--13-13-11--11-11-13--13-13-13-13-13-13-11-11---13-13----11-11---13-13-|
D|--------------------------------------------------------------------------| 
A|-14--14-14-12--12-12-11--11-11-11-11-11-11-9--9----11-11----9--9----11-11-|
D|--------------------------------------------------------------------------| 

e|---------------------------------------------------------------------------|
B|---------------------------------------------------------------------------| 
G|-13--13-13-11--11-11-13--13-13-13-13-13-13-11-11---13-13----11-11----13-13-|
D|---------------------------------------------------------------------------| 
A|-14--14-14-12--12-12-11--11-11-11-11-11-11-9--9----11-11----12-12----11-11-|
D|---------------------------------------------------------------------------| 

Outro (2:46): (Lead - Distortion)
e|------------------------------------------|
B|------------------------------------------|
G|------------------------------------------|
D|-------6-------------------6--------------| x2
A|-----------------9-------------------9-7--|
D|-6-7-9-----6-7-9-----6-7-9-----6-7-9------|

(Rhythm - Distortion)
e|-------------------------|
B|-------------------------|
G|-------------------------|
D|--------------------2----| x4
A|-0--2--2----2-0--2--0----|
D|-0--2--2----2-0--2-------|

Ending (2:56): (Lead AND Rhythm - Distortion)
e|---------------|
B|---------------|
G|---------------|
D|---------------|
A|-2-2----2-2----|
D|-2-2----2-2----|



            
            
Suggest correction
Creating personal tab
Creating personal tab
You can edit any tab online and save it as your Personal.

You can edit, replace or remove any tab part or add personal notes – all changes will be seen only by you.

Personal tabs can be accessed anytime from any device, even offline.
Learn more »
comments
print report bad tab
2 comments total.
0 reply
DanielSand 20 Feb 27, 2017 07:56 AM

Great job! B-)

0 reply
tomparr999 20 5 days ago

spot on good job

guest
You may want to rate the tab now too:
select rating
Wanna post a correction for this tab? Suggest correction