Oops, an error
Loading. Please wait.

Fat Lip Bass Tab

version 3
18,180 views 9 this week
3 commentsread comments
1 2 3 4 5
x 9
add to favorites
launch autoscroll
font size
0
reset
guitar tuner
Autoscroll
slow
fast
+/-
esc
set tempo
stop
Help us to improve Ultimate-Guitar.com Take our survey!
×
Author
Second tab.  Pretty sure this is right.  If the whole thing isn't wrong then just
send me an email on corrections.

It's in scroll order so enjoy.
Intro: 0:10
G----------------|
D----------------|
A-42-------------|
E----------------|

Main Riff: x2
G--------------------------|
D--------------------------|
A-----4~----2~-----4~---42-|
E-024---024----024---024---|

Verse: x2
G-------------------------|
D-------------------------|
A-----77-5-4-----77-------|
E-00---------00-----5-4-3-|

Pre-Chorus x2
G----------------------------|
D----------------------------|
A-----------------2222220000-|
E-222-222-222-222------------|

Chorus: x2
G------------------------------|
D-222--------------------------|
A----222\444444----222\444/222-|
E---------------222------------|

Main Riff: x2
G--------------------------|
D--------------------------|
A-----4~----2~-----4~---42-|
E-024---024----024---024---|

Pause

Verse: x2
G-------------------------|
D-------------------------|
A-----77-5-4-----77-------|
E-00---------00-----5-4-3-|

Pre-Chorus x2
G----------------------------|
D----------------------------|
A-----------------2222220000-|
E-222-222-222-222------------|

Chorus: x2
G------------------------------|
D-222--------------------------|
A----222\444444----222\444/222-|
E---------------222------------|

Post-Chorus: x2
G-----------------------|
D-----------------------|
A-----------------------|
E-22xx22xx2--22xx22xx2~-|

Pause for guitar then

Break: 1:49 x2
G----|----------------------------|
D----|----------------------------|
A----|-6-6-6~-2-2-2~4-4-4~--7-5-4-|
E-0h4|----------------------------|

Heavy Break:
G--------------------------|
D--------------------------|
A-----4~----2~-----4~----2-|
E-024---024----024---024---|

Pause

Then:
G--------------------------------|
D--------------------------------|
A-222-----4~----2~-----4~--------|
E----024----024----024---024-024-|

G---------------------|
D---------------------|
A-----4~----2~-----4~-|
E-024---024----024----|

Pause again

Then at 2:23:
G----------------|
D----------------|
A----------------|
E-12/000000000000

Chorus: x4
G------------------------------|
D-222--------------------------|
A----222\444444----222\444/222-|
E---------------222------------|

Main Riff: x2
G--------------------------|
D--------------------------|
A-----4~----2~-----4~---42-|
E-024---024----024---024---|
Suggest correction
comments
print report bad tab
3 comments total.
0 reply
kill3rk 10 Oct 16, 2009 11:07 AM

hi! good tab, it sounds good
but I think that in the main riff you play the guitar tab, i think it's only:

------------0-
0-2-2---0-2---

listen to the song another time and pay attention at the beggining

and you did it very complex, the bass tab is simplyer than yours

0 reply
TomYFTT 10 Jul 08, 2010 04:13 PM


-------------------------------------------
-------------------------------------------
------6~---------4~--------6~----------4-2-
4-5-7------4-5-7-----4-5-7-------4-5-7-----
[tab/]

Played in Standard Tuning. It's pretty good to play. (Main Riff)

0 reply
Slappytime 93 Jun 02, 2011 09:22 AM

ehm i think i shouldn't be
Post-Chorus: x2
G-----------------------|
D-----------------------|
A-----------------------|
E-22xx22xx2--22xx22xx2~-|

but
Post-Chorus: x2
G---------------------------------|
D---------------------------------|
A---------------------------------|
E-00-00-00-00-00-5~-00-00-0-00-00-|

guest
You may want to rate the tab now too:
select rating
Wanna post a correction for this tab? Suggest correction