Oops, an error
Loading. Please wait.

Fat Lip Bass Tab

version 6
26,450 views 108 this week
1 commentread comment
1 2 3 4 5
accurate
x 4
add to favorites
launch autoscroll
font size
0
reset
guitar tuner
Tab Pro tools
  • play this tab
  • loop segment
  • change instrument
  • show fretboard
  • metronome
Autoscroll
slow
fast
+/-
esc
set tempo
stop
Contributor
Difficulty
Tuning
novice
D A D G B E
Fat Lip Tab by Sum 41
Drop D Tuning
Tabbed by TaoK

INTRO:
e---------GUITAR ONLY------------|------------GUITAR ONLY------------| X2
B--------------------------------|-----------------------------------|
G------------1-------------------|------------1----------------------|
D----------------------------4---|----------------------------4--2---|
A--0--1--2---------0--1--2-------|--0--1--2---------0--1--2----------|
D--------------------------------|-----------------------------------|

G--------------------------------|-----------------------------------| X2
D--------------------------------|-----------------------------------|
A-----------------------------0--|------------------------------0----|
D--0-----2---2---2-0-----2-------|--0-----2---2----2-0-----2---------|


VERSE 1:
G------------------|---------------------|------------------|---------------------|
D------------------|---------------------|------------------|---------------------|
A------------2--2--|-00---------0--------|------------2--2--|-00---------0--------|
D-22---------------|---------------6--4--|-22---------------|---------------6--4--|
    

PRE-CHORUS:
G------------------------------------------------|
D------------------------------------------------|
A------------------------------------------------|
D-2--2--2--2--2--2--2--2--2--2--2--2--2--2--2--2-|

G------------------------------------------------|
D------------------------------------------------|
A-4--4--4--4--4--4--4--0--0--0--0--0--0--0--0--0-|
D------------------------------------------------|

G------------------------------------------------|
D------------------------------------------------|
A------------------------------------------------|
D-2--2--2--2--2--2--2--2--2--2--2--2--2--2--2--2-|

G------------------------------------------------|
D------------------------------------------------|
A-4--4--4--4--4--4--4-----4---2---0--------------|
D-------------------------------------6----------|


CHORUS:
G------------------------------------|-------------------------------------|
D--2---------------------------------|-------------------------------------|
A--------2--2-----4--4---4--4--4--4--|-6-----7--7-----6--6-----7--7--------|
D------------------------------------|---------------------------------2---|

G------------------------------------|-------------------------------------|
D--2---------------------------------|-------------------------------------|
A--------2--2-----4--4---4--4--4--4--|-------------------------------------|
D------------------------------------|-6-----7--7-----6--6-----7--7--------|

G--------------------------------|-----------------------------------| X2
D--------------------------------|-----------------------------------|
A-----------------------------0--|------------------------------0----|
D--0-----2---2---2-0-----2-------|--0-----2---2----2-0-----2---------|

G--------------------------------|
D--------------------------------|
A--------------------------------|
D--------------------------------|


VERSE 2:
G------------------|---------------------|------------------|---------------------|
D------------------|---------------------|------------------|---------------------|
A------------2--2--|-00---------0--------|------------2--2--|-00---------0--------|
D-22---------------|---------------6--4--|-22---------------|---------------6--4--|


PRE-CHORUS:
G------------------------------------------------|
D------------------------------------------------|
A------------------------------------------------|
D-2--2--2--2--2--2--2--2--2--2--2--2--2--2--2--2-|

G------------------------------------------------|
D------------------------------------------------|
A-4--4--4--4--4--4--4--0--0--0--0--0--0--0--0--0-|
D------------------------------------------------|

G------------------------------------------------|
D------------------------------------------------|
A------------------------------------------------|
D-2--2--2--2--2--2--2--2--2--2--2--2--2--2--2--2-|

G------------------------------------------------|
D------------------------------------------------|
A-4--4--4--4--4--4--4-----4---2---0--------------|
D-------------------------------------6----------|


CHORUS:
G------------------------------------|-------------------------------------|
D--2---------------------------------|-------------------------------------|
A--------2--2-----4--4---4--4--4--4--|-6-----7--7-----6--6-----7--7--------|
D------------------------------------|---------------------------------2---|

G------------------------------------|-------------------------------------|
D--2---------------------------------|-------------------------------------|
A--------2--2-----4--4---4--4--4--4--|-------------------------------------|
D------------------------------------|-6-----7--7-----6--6-----7--7--------|


BRIDGE:
e------------------------|-----------------------|------------------------|--------------------|
B------------------------|-----------------------|------------------------|--------------------|
G------------------------|-----------------------|------------------------|--------------------|
D------------------------|-----------------------|------------------------|--------------------|
A------------------------|---------------------0-|------------------------|--------------------|
D--2-2--x---2-2--x-x--2--|--2-2--x---2-2--x-x----|--2-2--x---2-2--x-x--2--|--2-2--x-x-x---2-2--|


INTERLUDE:
e----GUITAR ONLY----|----GUITAR ONLY----|----GUITAR ONLY----|
B-------------------|-------------------|-------------------|
G-------------------|-------------------|-------------------|------------------|
D-------------------|-------------------|-------------------|------------------|
A-------------------|-------------------|-------------------|-------------2-4--|
D-------------------|-------------------|-------------------|------------------|

G-------------------|-------------------|-------------------|------------------|
D-------------------|-----------------2-|-------------------|------------------|
A----------2-2-2-2--|-4-4-4-4---2--4----|----------2-2-2-2--|-4-4-4------------|
D--2-2-2-2----------|-------------------|--2-2-2-2----------|------------------|

G--------------------------------|---------------------------------|-------------|
D--------------------------------|---------------------------------|-------------|
A-----------------------------0--|------------------------------0--|-------------|
D--0-----2---2---2-0-----2-------|--0-----2---2----2-0-----2-------|-----x--x--x-|

G--------------------------------|---------------------------------|
D--------------------------------|---------------------------------|
A-----------------------------0--|---------------------------------|
D--0-----2---2---2-0-----2-------|--0-----2---2----2-0-----2-------|

G--------------------------------|---------------------------------|--------|--------|
D--------------------------------|---------------------------------|--------|--------|
A-----------------------------0--|------------------------------0--|--------|--------|
D--0-----2---------0-----2-------|--0-----2---2----2-0-----2-------|--------|----12\-|

G---------------------------------|----------------------------------|
D---------------------------------|----------------------------------|
A---------------------------------|----------------------------------|
D-0-0-0-0-0-0-0-0-0-0-0-0-0-0-0-0-|-0-0-0-0-0-0-0-0-0-0-0-0-0-0-0-0--|


CHORUS:
G------------------------------------|-------------------------------------|
D--2---------------------------------|-------------------------------------|
A--------2--2-----4--4---4--4--4--4--|-6-----7--7-----6--6-----7--7--------|
D------------------------------------|---------------------------------2---|

G------------------------------------|-------------------------------------|
D--2---------------------------------|-------------------------------------|
A--------2--2-----4--4---4--4--4--4--|-------------------------------------|
D------------------------------------|-6-----7--7-----6--6-----7--7--------|

G------------------------------------|-------------------------------------|
D------------------------------------|-------------------------------------|
A--7--7----6--6----4--4--7--7--------|----------------------------6--------|
D------------------------------------|-6--6--7--7-----6--6-----7-----------|

G------------------------------------|-------------------------------------|
D----------7\------------------------|-------------------------------------|
A--7--7------------4--4--7--7--------|-------------------------------------|
D------------------------------------|-6--6--7--7-----6--6-----7--7--------|

G--------------------------------|-----------------------------------| X2
D--------------------------------|-----------------------------------|
A-----------------------------0--|------------------------------0----|
D--0-----2---2---2-0-----2-------|--0-----2---2----2-0-----2---------|

G------------------------|
D------------------------|
A------------------------|
D--2-2------2-2----------|
comments
print report bad tab
1 comment total.
0 reply
Buzzcat wrote on August 11 2010, 11:01 am

Every tab for this song is different. I think only the chorus is inaccurate but so is everyone else's, and that includes every YouTube cover of it - this sounds better anyway.

I want to post or [tab]
guest
You may want to rate the tab now too:
select rating
Please do not post tabs as comments. Select "correction" instead!