Oops, an error
Loading. Please wait.

Fat Lip Bass Tab

version 7
3,381 views 6 this week
no commentswrite comment
1 2 3 4 5
1 last vote to show rating
add to favorites
launch autoscroll
font size
0
reset
guitar tuner
Autoscroll
slow
fast
+/-
esc
set tempo
stop
Help us to improve Ultimate-Guitar.com Take our survey!
×
Author
Difficulty
Tuning
intermediate
B E A D F# B
Artist: Sum 41
Album: All Killer No Filler
Song: Fat Lip
Tabbed by: Uploads87
Email: pmuehlburger@gmail.com

This tab is for 5-string basses: tuning B E A D G not B E A D F# B!


Please don't forget: That's how I like to play the song on my 5-String!!
You can also watch the video on Youtube, just look for Fat Lip Uploads87, so you 
get the timing right.

Intro:
Guitar ONLY
e----------------------------------------|
B----------------------------------------|
G----------------------------------------|
D--------6----------------6--------------|
A----------------4---------------4-2-----| x2
D--6-7-9---6-7-9---6-7-9---6-7-9---------|


After the guitar intro the bass and drums kick in
~ = hold the note a bit
You will know what I mean by listening to the song :)
G|------------------------------------------------------------------------------|
D|------------------------------------------------------------------------------|
A|------------------12~----------------12~---------------12~---------------12~--|
E|------------------------------------------------------------------------------|
B|-12\3-5-5~--33-53-----33-5-5~--33-53-----33-5-5~-33-53-----33-5-5~-33-53------|


Verse 1:
G|-------------------------|
D|-------------------------|
A|------2-2~-00---0--------|
E|-00----------------4-2---| x2
B|-------------------------|


Pre Chorus: from 11th fret upwards played faster with down- and upstrokes
G|-------------------------------------------------------------------------------|
D|-------------------------------------------------------------------------------|
A|------------------44444444------2-4-7777777777777777-11(x16)-12(8x)-14(8x)-----|
E|-0000000000000000----------5555------------------------------------------------|
B|-------------------------------------------------------------------------------|


Chorus:
G|------------------------------------------------------------------------------|
D|-2------------1-2------------------2------------1-2---------------------------|
A|---x22-x44-44------------------------x22-x44-44-------------------------------|
E|------------------4-555-444-555-xx------------------4-555-444-555-50----------|
B|------------------------------------------------------------------------------|


G|----------------------------------------------------------------------------|
D|----------------------------------------------------------------------------|
A|---------------12~-----------------12~---------------12~---------------12~--|
E|----------------------------------------------------------------------------|
B|-3-5-5~--33-53------33-5-5~--33-53-----33-5-5~-33-53-----33-5-5~-33-53------|


Verse 2:
G|-------------------------|
D|-------------------------|
A|------2-2~-00---0--------|
E|-00----------------4-2---| x2
B|-------------------------|


Pre-Chorus: same as before
G|-------------------------------------------------------------------------------|
D|-------------------------------------------------------------------------------|
A|------------------44444444------2-4-7777777777777777-11(x16)-12(8x)-14(8x)-----|
E|-0000000000000000----------5555------------------------------------------------|
B|-------------------------------------------------------------------------------|


Chorus:
G|------------------------------------------------------------------------------|
D|-2------------1-2------------------2------------1-2---------------------------|
A|---x22-x44-44------------------------x22-x44-44-------------------------------|
E|------------------4-555-444-555-xx------------------4-555-444-555-55----------|
B|------------------------------------------------------------------------------|


Bridge: x = here I play a muted string (just rest your left hand on the string
instead of pressing the right note) and pick with the right
G|----------------------------------------------|
D|----------------------------------------------|
A|--------------------12~-----------------------|
E|-00-00xx--0-00-00xx-----00-00xx00-00(xx)00----|
B|----------------------------------------------|


Interlude:
First the GUITAR plays 2 times
e-----0-------0-------0---------|
B---0---0---0---0---------------|
G-------------------------------|
D-------------------6---6---2---|
A-7-------6-------4-------0---0-|
D-------------------------------|


then bass comes in also
G|-------------------------------------------|
D|-------------------------------------------|
A|-0-2-4------2-2~-4-4~-0-2-4------2-2~-4-4~-|
E|-------0-0~-----------------0-0~-----------|
B|-------------------------------------------|


G|------------------------------------------|----------|
D|------------------------------------------|--vocals--|
A|------------------12~-----------------12~-|--and-----|
E|------------------------------------------|--drums---|
B|-12\3-5-5~--33-53------33-5-5~--33-53-----|--only----|


G|--------------------------------------------------------------------|
D|--------------------------------------------------------------------|
A|------------------12~-------------------------12~--------------12~~-|
E|--------------------------------------------------------------------|
B|-xxxx3-5-5~-33-53-----33-5-5~-3-5---3-5---3-5-----33-5-5-33-53------|


again drums+fading vocals only
G|----------------|
D|----------------|
A|----------------|
E|----------------|
B|----------------|


slide down from fret 12 to 0 and play the open string 16 times (using down- and 
upstrokes with pick),
following with open string down- and upstrokes twice the speed ^.^ equals 32 times the 
open string
G|------------------------|
D|-12\0(16x)0(32x)lol-----|
A|------------------------|
E|------------------------|
B|------------------------|


Chorus: Please note, this is played different than the others before!
G|------------------------------------------------------------------------------|
D|-2------------1-2------------------2------------1-2---------------------------|
A|---x22-x44-44------------------------x22-x44-44-------------------------------|
E|------------------4-555-444-555-xx------------------4-555-444-555-55----------|
B|------------------------------------------------------------------------------|


G|------------------------------------------4-44----------------------------|
D|-2-22-1-11------1-2------------------2-22-----------1-2-------------------|
A|-----------4-44--------------------------------4-44-----------------------|
E|--------------------4-555-444-555-xx--------------------4-555-444-555-50--|
B|--------------------------------------------------------------------------|


G|----------------------------------------------------------------------------|
D|----------------------------------------------------------------------------|
A|---------------12~-----------------12~---------------12~---------------12~--|
E|----------------------------------------------------------------------------|
B|-3-5-5~--33-53------33-5-5~--33-53-----33-5-5~-33-53-----33-5-5~-33-53------|


G|------------|
D|------------|
A|------------|
E|------------|
B|-55----55---|

That's it! Hope you like it!
cheers, Uploads87
Suggest correction
Give kudos to tab author, rate the tab!
1 2 3 4 5
comments
print report bad tab
guest
You may want to rate the tab now too:
select rating
Wanna post a correction for this tab? Suggest correction