Oops, an error
Loading. Please wait.

Fat Lip Tab

version 7
version 7

Whole song

Video

46,614 views 186 this week
7 commentsread comments
1 2 3 4 5
accurate
x 24
add to favorites
launch autoscroll
font size
0
reset
how to read this tab
guitar tuner
Autoscroll
slow
fast
+/-
esc
set tempo
stop
Help us to improve Ultimate-Guitar.com Take our survey!
×
Author
song: Fat lip
Band: sum 41
album:All Killer No filler
tabbed by sum41meister

This was a very hard song to do but i'm 100% sure this is right and if you listen very 
to the chorus, interlude
and stuff you'll see what I mean.


[Intro]

         Both Guitars
e|----------------------------------------------|
B|----------------------------------------------|
G|------------------------------------  Repeat--| 2x
D|------6--------4--------6--------4p2----------|
A|----------------------------------------------|
E|4-5-7----4-5-7----4-5-7----4-5-7--------------|
  .....    .....    .....    .....

         Guitar 1 continues to play the same thing but without the palm muting
e|----------------------------------------------|
B|----------------------------------------------|
G|------------------------------------  Repeat--| 2x
D|------6--------4--------6--------4p2----------|
A|----------------------------------------------|
E|4-5-7----4-5-7----4-5-7----4-5-7--------------|


Guitar 2 plays this at the same time as Guitar 1. If you listen to the song you'll work it out
e|------------------------------|
B|------------------------------|
G|--------------------  Repeat--| 4x
D|--2-2--2------2-2--7----------|
A|--2-2--2------2-2--7----------|
E|0-0-0--0----0-0-0--5----------|


[Verse 1]

        Both Guitars
e|-------------------------------------------------------------------------|
B|-------------------------------------------------------------------------|
G|-------------------------------------------------------------------------|
D|22----------------77---------------22-------------------77---------------|
A|22----7p6h7-------77----7p6h7------22----11p10h11-------77----7p6h7------|
E|00---------7-7----55---------5-4-2-00------------7-7----55---------5-4-2-|


[Pre-Chorus]

        Both Guitars
e|----------------------------------------------------------------|
B|----------------------------------------------------------------|
G|--------------------------------6-6-6-6-6-6-6-6-2-2-2-2-2-2-2-2-|
D|2-2-2-2-2-2-2-2-2-2-2-2-2-2-2-2-6-6-6-6-6-6-6-6-2-2-2-2-2-2-2-2-|
A|2-2-2-2-2-2-2-2-2-2-2-2-2-2-2-2-4-4-4-4-4-4-4-4-0-0-0-0-0-0-0-0-|
E|0-0-0-0-0-0-0-0-0-0-0-0-0-0-0-0---------------------------------|
  ...............................................................

e|------------------------------------------------|
B|------------------------------------------------|
G|--------------------------------6-6-6-6-6-6-6-6-|  There a bit of feed back
D|2-2-2-2-2-2-2-2-2-2-2-2-2-2-2-2-6-6-6-6-6-6-6-6-|  straight after verse
A|2-2-2-2-2-2-2-2-2-2-2-2-2-2-2-2-4-4-4-4-4-4-4-4-|
E|0-0-0-0-0-0-0-0-0-0-0-0-0-0-0-0-----------------|
  ...............................................


[Chorus]

  Both guitars
e|-----------------------------------|
B|-----------------------------------|
G|9---9-9-9-9-9-9-9--------  repeat--| 2x
D|9-9-9-9-9-9-9-9-9-6-7-6-7----------|
A|7-9-7-7-7-7-7-7-7-6-7-6-7----------|
E|--7---------------4-5-4-5----------|


  Guitar 1 plays this again
e|----------------------------------------------|
B|----------------------------------------------|
G|------------------------------------  Repeat--| 2x
D|------6--------4--------6--------4p2----------|
A|----------------------------------------------|
E|4-5-7----4-5-7----4-5-7----4-5-7--------------|

  Guitar 2 comes in at the same time as guitar 1
e|------------------------------|
B|------------------------------|
G|--------------------  Repeat--| 4x
D|--2-2--2------2-2--7----------|
A|--2-2--2------2-2--7----------|
E|0-0-0--0----0-0-0--5----------|


[Verse 2]

Both guitars
e|-------------------------------------------------------------------------|
B|-------------------------------------------------------------------------|
G|-------------------------------------------------------------------------|
D|22----------------77---------------22-------------------77---------------|
A|22----7p6h7-------77----7p6h7------22----11p10h11-------77----7p6h7------|
E|00---------7-7----55---------5-4-2-00------------7-7----55---------5-4-2-|

Repeat pre chorus then reapeat chorus


[Interlude]

Both Guitars
e|---------------------------------------------------------|
B|---------------------------------------------------------|
G|---------------------------------------------------------|
D|22-x-22-xx-2----22-x-22-xx-7----22-x-22-xx-2----22-xx-22-|
A|22-x-22-xx-2----22-x-22-xx-7----22-x-22-xx-2----22-xx-22-|
E|00-x-00-xx-0----00-x-00-xx-5----00-x-00-xx-0----00-xx-00-|

Guitar 1
e|--------------------------------------------------------|
B|------------5------------------------5------------------|
G|--9----9-------------------9----9-------------  Repeat--| 4x
D|-9-9--9-9--6-6------------9-9--9-9--6-6-----------------|
A|7----6----4--------7-----7----6----4--------7-----------|
E|------------------5-5----------------------5-5----------|

Guitar 2 plays at the same time after Guitar 1 plays the above 2x
e|--------------------------------------------|
B|--------------------------------------------|
G|9-9-9-9-9-9-----9-9----9-9-9-9-9-9------9-9-|
D|-9-9-9-9-9-9-----9------9-9-9-9-9-9------9--|
A|--------------------------------------------|
E|--------------------------------------------|

Both Guitars
e|----------------------------------------------|
B|----------------------------------------------|
G|----------------------------------------------|
D|2-2-2--2----2-2-2--7----2-2-2--2----2-2-2--7--|  Then there is some singing without the guitar
A|2-2-2--2----2-2-2--7----2-2-2--2----2-2-2--7--|
E|0-0-0--0----0-0-0--5----0-0-0--0----0-0-0--5--|

Both Guitars
e|-----------------------------------------  E|----|
B|-----------------------------------------  B|----|
G|-----------------------------------------  G|----|
D|2-2-2--2----2-2-2--7----2-2-2--2----2-2-2  D|2-2-|
A|2-2-2--2----2-2-2--7----2-2-2--2----2-2-2  A|2-2-|
E|0-0-0--0----0-0-0--5----0-0-0--0----0-0-0  E|0-0-|
                                       Pause for singing
Both Guitars
---------------------------------|
---------------------------------|
---------------------------------|
2-2-2--7----2-2-2--2----2-2-2--7-|
2-2-2--7----2-2-2--2----2-2-2--7-|
0-0-0--5----0-0-0--0----0-0-0--5-|

More singing then leading up to the chorus the  guitar goes like this

Both Guitars
e|---------------------------------------------|
B|---------------------------------------------|
G|---------------------------------------------|
D|7\-12-12-12-12-12-12-12-12-12-12-12-12-12-12-|
A|7\-12-12-12-12-12-12-12-12-12-12-12-12-12-12-|
E|5\-10-10-10-10-10-10-10-10-10-10-10-10-10-10-|
     ..........................................

e|---------------------------------------------------|
B|---------------------------------------------------|
G|---------------------------------------------------|  the sliding
D|12-12-12-12-12-12-12-12-12-12-12-12-12-12-12-12-12-|  bit was hard to hear
A|12-12-12-12-12-12-12-12-12-12-12-12-12-12-12-12-12-|  but all you have to do
E|10-10-10-10-10-10-10-10-10-10-10-10-10-10-10-10-10-|  is slide the chord off
.....                                               the fret board real fast.


[Chorus]

Both guitars
e|-----------------------------------|
B|-----------------------------------|
G|9---9-9-9-9-9-9-9--------  repeat--| 2x
D|9-9-9-9-9-9-9-9-9-6-7-6-7----------|
A|7-9-7-7-7-7-7-7-7-6-7-6-7----------|
E|--7---------------4-5-4-5----------|

  Both guitars
e|-----------------------|
B|-----------------------|
G|9-8-6--6--6--6---------|
D|9-8-6--6--6--4-6-7-6-7-|
A|7-6-4--4--4--4-6-7-6-7-|
E|---------------4-5-4-5-|

  Both guitars
e|------------------------|
B|------------------------|
G|9-13-6--6--6--6---------|
D|9-13-6--6--6--6-6-7-6-7-|
A|7-11-4--4--4--4-6-7-6-7-|
E|----------------4-5-4-7-|

Then after the chorus you do this bit again

Guitat 1
e|----------------------------------------------|
B|----------------------------------------------|
G|------------------------------------  Repeat--| 2x
D|------6--------4--------6--------4p2----------|
A|----------------------------------------------|
E|4-5-7----4-5-7----4-5-7----4-5-7--------------|

Guitar 2 as usuall plays at the same time as guitar 1
e|------------------------------|
B|------------------------------|
G|--------------------  Repeat--| 4x
D|--2-2--2------2-2--7----------|
A|--2-2--2------2-2--7----------|
E|0-0-0--0----0-0-0--5----------|


Then the ending goes like this

e|---------|
B|---------|
G|---------|
D|22----22-|
A|22----22-|
E|00----00-|



************************************

| ...  pulm muted
| p    pull off
| h    hammer on
| /    slide

************************************
Suggest correction
comments
print report bad tab
7 comments total. Showing first comments. show 1 bad comment
+1 reply
wh1ck3r 10 wrote on April 3 2005, 12:00 am

this is one of the best i've seen

-2 reply
Bozjoarmstrong 360 wrote on February 27 2007, 04:05 pm

this is shit

guest
You may want to rate the tab now too:
select rating
Wanna post a correction for this tab? Suggest correction