Oops, an error
Loading. Please wait.

God Save Us All Death To Pop Bass Tab

265 views 6 this week
no commentswrite comment
1 2 3 4 5
2 more votes to show rating
add to favorites
launch autoscroll
font size
0
reset
guitar tuner
Autoscroll
slow
fast
+/-
esc
set tempo
stop
Help us to improve Ultimate-Guitar.com Take our survey!
×
Author
Difficulty
My YT Channel Of Bass Cover:https://www.youtube.com/channel/UCg9O-Rug1KEvY3jmKHY8R-Q
(Write me a coment if you want any bass tab)



[Intro]
G|---------------------------------------------------------------------------|
D|---------------------------------------------------------------------------|
A|-5-5-5-5-X2--8-8-8-8-8X4--5-5-5-5-X2---------------------------------------|
E|---------------------------------------------------------------------------|

G|---------------------------------------------------------------------------|
D|---------------------------------------------------------------------------|
A|-5-5-5-5-X2--8-8-8-8-X4--5-5-5-5-X2----------------------------------------|
E|---------------------------------------------------------------------------|

[Verse]
G|---------------------------------------------------------------------------|
D|---------------------------------------------------------------------------|
A|--5-5-5-5-X2--8-8-8-8-X2--3-3-3-3-X2---------------------------------------|X3
E|--------------------------------------3-3-3-3-X2---------------------------|

G|---------------------------------------------------------------------------|
D|---------------------------------------------------------------------------|
A|--1-1-1-1-X4--3-3-3-3-X4--5------------------------------------------------|
E|---------------------------------------------------------------------------|

[Intro 2]
G|---------------------------------------------------------------------------|
D|---------------------------------------------------------------------------|
A|-5-5-5-5-X2--8-8-8-8-8-X4--5-5-5-5-X2--------------------------------------|
E|---------------------------------------------------------------------------|

G|---------------------------------------------------------------------------|
D|---------------------------------------------------------------------------|
A|-5-5-5-5-X2--8-8-8-8-X4--5-5-5-5-X2----------------------------------------|
E|---------------------------------------------------------------------------|

G|---------------------------------------------------------------------------|
D|---------------------------------------------------------------------------|
A|-5-5-5-5-X2--8-------------------------------------------------------------|
E|---------------------------------------------------------------------------|

[Verse 2]
G|---------------------------------------------------------------------------|
D|---------------------------------------------------------------------------|
A|--5-5-5-5-X2--8-8-8-8-X2--3-3-3-3-X2---------------------------------------|
E|--------------------------------------3-3-3-3-X2---------------------------|

G|---------------------------------------------------------------------------|
D|---------------------------------------------------------------------------|
A|--1-1-1-1-X4--3-3-3-3-X4--5------------------------------------------------|
E|---------------------------------------------------------------------------|

[Intro 3]
G|---------------------------------------------------------------------------|
D|---------------------------------------------------------------------------|
A|-5-5-5-5-X2--8-8-8-8-8-X4--5-5-5-5-X2--------------------------------------|
E|---------------------------------------------------------------------------|

G|---------------------------------------------------------------------------|
D|---------------------------------------------------------------------------|
A|-5-5-5-5-X2--8-8-8-8-X4--5-5-5-5-X2----------------------------------------|
E|---------------------------------------------------------------------------|

G|---------------------------------------------------------------------------|
D|---------------------------------------------------------------------------|
A|-5-5-5-5-X2----------------------------------------------------------------|
E|---------------------------------------------------------------------------|

[Outro]
G|---------------------------------------------------------------------------|
D|-----7--5-----7-----7--5-----7------7--5-----7-----------------------------|
A|--5--------5-----5--------5------5--------5------8-8-8--10-10-10-----------|
E|---------------------------------------------------------------------------|

G|---------------------------------------------------------------------------|
D|-----7--5-----7-----7--5-----7------7--5-----7-----------------------------|
A|--5--------5-----5--------5------5--------5------8-8-8--10-10-10--5--------|
E|---------------------------------------------------------------------------|

[Final verse]
G|---------------------------------------------------------------------------|
D|---------------------------------------------------------------------------|
A|--5-5-5-5-X2--8-8-8-8-X2--3-3-3-3-X2---------------------------------------|X3
E|--------------------------------------3-3-3-3-X2---------------------------|

G|---------------------------------------------------------------------------|
D|---------------------------------------------------------------------------|
A|--5-5-5-5-X2--8-8-8-8-X2--3-3-3-3-X2---------------------------------------|X3
E|--------------------------------------3--3-3--3----------------------------| 
Suggest correction
Give kudos to tab author, rate the tab!
1 2 3 4 5
comments
print report bad tab
guest
You may want to rate the tab now too:
select rating
Wanna post a correction for this tab? Suggest correction