Oops, an error
Loading. Please wait.

God Save Us All Death To Pop Tab

version 1
version 1

Whole song

  • Offers a detailed version for both guitar parts in... Show more
2,338 views 66 this week
2 commentsread comments
1 2 3 4 5
x 6
add to favorites
launch autoscroll
font size
0
reset
how to read this tab
guitar tuner
Autoscroll
slow
fast
+/-
esc
set tempo
stop
Help us to improve Ultimate-Guitar.com Take our survey!
×
Author
Artist: Sum 41
Album: 13 Voices
Title: God Save Us All (Death To Pop) [3rd Single]
Tuning: Drop D
Tabbed by: Bobby9685TheRevenge
Youtube Channel: https://www.youtube.com/user/Bobby94685TheRevenge

Deryck Whibley Speaks:
The cool thing about playing
rock music all over the world
is we get to share this unity
through music with other people.
In my opinion I think you only
get that feeling with rock music.
I don't think you feel
anything with pop

[Intro Piano] 

[Verse 0]
           Dm
We have the passion
       F
of the unbroken
        C
And our souls we
         Gm
will not sell You
    Dm
can beat us down
            F
but when we come
             C
around We'll damn
           Gm  
you all to hell

Dm   F   C   Gm   (Piano Chords)


[Intro Rhythm Guitar]

e|----------------------------------------------------------------------------------|
B|----------------------------------------------------------------------------------|
G|----------------------------------------5-5-5-5-5-5-5-5---------------------------|
D|-0-0-0-0-0-0-0-0----/3-3-3-3-3-3-3-3----5-5-5-5-5-5-5-5----5-5-5-5-5-5-5-5--------|
A|-0-0-0-0-0-0-0-0----/3-3-3-3-3-3-3-3----3-3-3-3-3-3-3-3----5-5-5-5-5-5-5-5--------|
D|-0-0-0-0-0-0-0-0----/3-3-3-3-3-3-3-3-----------------------5-5-5-5-5-5-5-5--------|

e|----------------------------------------------------------------------------------|
B|----------------------------------------------------------------------------------|
G|----------------------------------------5-5-5-5-5-5-5-5---------------------------|
D|-0-0-0-0-0-0-0-0----/3-3-3-3-3-3-3-3----5-5-5-5-5-5-5-5----5-5-5-5-5-5-5-5---0----|
A|-0-0-0-0-0-0-0-0----/3-3-3-3-3-3-3-3----3-3-3-3-3-3-3-3----5-5-5-5-5-5-5-5---0----|
D|-0-0-0-0-0-0-0-0----/3-3-3-3-3-3-3-3-----------------------5-5-5-5-5-5-5-5---0----|


[Intro Lead Guitar Notes Solo]  it's the same for the lead guitar in the choruses

e|-----------------------------------------------------------------------------------------------------------|
B|---/15-15-------15-15--------13-13-10-10--13-13-10-10------/13-13--------13-13-------/15--15--17--18-------|
G|---------14-14-------14-14---------------------------------------12-12-------12-12------14--14--14---------|
D|-----------------------------------------------------------------------------------------------------------|
A|-----------------------------------------------------------------------------------------------------------|
D|-----------------------------------------------------------------------------------------------------------|

e|-----------------------------------------------------------------------------------------------------------|
B|---/15-15-------15-15--------13-13-10-10--13-13-10-10------/13-13--------13-13-------/15--15--17--18---15--|
G|---------14-14-------14-14---------------------------------------12-12-------12-12------14--14---14---14---|
D|-----------------------------------------------------------------------------------------------------------|
A|-----------------------------------------------------------------------------------------------------------|
D|-----------------------------------------------------------------------------------------------------------|


[Verse 1]

distortion
e|-----------------------------------------------------------------------------------------|
B|-----------------------------------------------------------------------------------------|
G|--7-7-7-7-7-7-7-7---------------------------5-5-5-5-5-5-5-5------------------------------|
D|--7-7-7-7-7-7-7-7-----3-3-3-3-3-3-3-3-------5-5-5-5-5-5-5-5------5-5-5-5-5-5-5-5---------|
A|--5-5-5-5-5-5-5-5-----3-3-3-3-3-3-3-3-------3-3-3-3-3-3-3-3------5-5-5-5-5-5-5-5---------|
D|----------------------3-3-3-3-3-3-3-3----------------------------5-5-5-5-5-5-5-5---------|

e|-----------------------------------------------------------------------------------------|
B|-----------------------------------------------------------------------------------------|
G|--7-7-7-7-7-7-7-7---------------------------5-5-5-5-5-5-5-5------------------------------|
D|--7-7-7-7-7-7-7-7-----3-3-3-3-3-3-3-3-------5-5-5-5-5-5-5-5------5-5-5-5-5-5-5-5---------|
A|--5-5-5-5-5-5-5-5-----3-3-3-3-3-3-3-3-------3-3-3-3-3-3-3-3------5-5-5-5-5-5-5-5---------|
D|----------------------3-3-3-3-3-3-3-3----------------------------5-5-5-5-5-5-5-5---------|

e|-----------------------------------------------------------------------------------------|
B|-----------------------------------------------------------------------------------------|
G|--7-7-7-7-7-7-7-7-----/1010101010101010------5-5-5-5-5-5-5-5-----------------------------|
D|--7-7-7-7-7-7-7-7-----/1010101010101010------5-5-5-5-5-5-5-5------5-5-5-5-5-5-5-5--------|
A|--5-5-5-5-5-5-5-5-----/8-8-8-8-8-8-8-8-------3-3-3-3-3-3-3-3------5-5-5-5-5-5-5-5--------|
D|------------------------------------------------------------------5-5-5-5-5-5-5-5--------|

[Prechorus 1]
                              alternative sequence 
          stopped chord                              stopped chord    
         on 12th fret (refrain)                      on 5-7th fret (refrain)     
e|--------------------|                            e|------------------|           
B|--------------------|                            B|------------------|   
G|--------------------|                            G|--3---/5---/7r\---|
D|--8---/10---/12r\---|                            D|--3---/5---/7r\---|
A|--8---/10---/12r\---|                            A|--1---/3---/5r\---|
D|--8---/10---/12r\---|                            D|------------------|


[Refrain 1]

 Dm (hold)
Let me see you hold
up your salute to
the sky While you
sing it out bleeding
out your lungs
until you die


[Chorus 1]   lead solo theme in background
e|------------------------------------------------------------------------------------------------|
B|------------------------------------------------------------------------------------------------|
G|----------------------------------------5-5-5-5-5-5-5-5-----------------------------------------|
D|-0-0-0-0-0-0-0-0----/3-3-3-3-3-3-3-3----5-5-5-5-5-5-5-5----5-5-5-5-5-5-5-5----------------------|
A|-0-0-0-0-0-0-0-0----/3-3-3-3-3-3-3-3----3-3-3-3-3-3-3-3----5-5-5-5-5-5-5-5----------------------|
D|-0-0-0-0-0-0-0-0----/3-3-3-3-3-3-3-3-----------------------5-5-5-5-5-5-5-5----------------------|
                                                                     repeat last notes in lead solo (15-17-18)
e|------------------------------------------------------------------------------------------------|
B|------------------------------------------------------------------------------------------------|
G|----------------------------------------5-5-5-5-5-5-5-5-----------------------------------------|
D|-0-0-0-0-0-0-0-0----/3-3-3-3-3-3-3-3----5-5-5-5-5-5-5-5----5-5-5-5-5-5-5-5-5-5-5-5-5-5-5-5----0-|
A|-0-0-0-0-0-0-0-0----/3-3-3-3-3-3-3-3----3-3-3-3-3-3-3-3----5-5-5-5-5-5-5-5-5-5-5-5-5-5-5-5----0-|
D|-0-0-0-0-0-0-0-0----/3-3-3-3-3-3-3-3-----------------------5-5-5-5-5-5-5-5-5-5-5-5-5-5-5-5----0-|
                                                                     

[Verse 2]

clean 
e|---------------------------------|
B|---------------------------------|
G|--7-----/10-----5----------------|
D|--7-----/10-----5-----5----------|
A|--5-----/8------3-----5----------|
D|----------------------5----------|

e|---------------------------------|
B|---------------------------------|
G|--7-----/10-----5----------------|
D|--7-----/10-----5-----5----------|
A|--5-----/8------3-----5----------|
D|----------------------5----------|

distortion 
e|------------------------------------------------------------------------------------------|
B|------------------------------------------------------------------------------------------|
G|--7-7-7-7-7-7-7-7------/1010101010101010-----5-5-5-5-5-5-5-5------------------------------|
D|--7-7-7-7-7-7-7-7------/1010101010101010-----5-5-5-5-5-5-5-5------5-5-5-5-5-5-5-5---------|
A|--5-5-5-5-5-5-5-5------/8-8-8-8-8-8-8-8------3-3-3-3-3-3-3-3------5-5-5-5-5-5-5-5---------|
D|------------------------------------------------------------------5-5-5-5-5-5-5-5---------|


[Prechorus 2]
                              alternative sequence 
          stopped chord                              stopped chord    
         on 12th fret (refrain)                      on 5-7th fret (refrain)     
e|--------------------|                            e|------------------|           
B|--------------------|                            B|------------------|   
G|--------------------|                            G|--3---/5---/7r\---|
D|--8---/10---/12r\---|                            D|--3---/5---/7r\---|
A|--8---/10---/12r\---|                            A|--1---/3---/5r\---|
D|--8---/10---/12r\---|                            D|------------------|


[Refrain 2]

 Dm (hold)
Let me see you hold
up your salute to
the sky While you
sing it out bleeding
out your lungs
until you die


[Chorus 2]   lead solo theme in background

e|----------------------------------------------------------------------------------------------|
B|----------------------------------------------------------------------------------------------|
G|----------------------------------------5-5-5-5-5-5-5-5---------------------------------------|
D|-0-0-0-0-0-0-0-0----/3-3-3-3-3-3-3-3----5-5-5-5-5-5-5-5----5-5-5-5-5-5-5-5--------------------|
A|-0-0-0-0-0-0-0-0----/3-3-3-3-3-3-3-3----3-3-3-3-3-3-3-3----5-5-5-5-5-5-5-5--------------------|
D|-0-0-0-0-0-0-0-0----/3-3-3-3-3-3-3-3-----------------------5-5-5-5-5-5-5-5--------------------|

e|----------------------------------------------------------------------------------------------|
B|----------------------------------------------------------------------------------------------|
G|----------------------------------------5-5-5-5-5-5-5-5---------------------------------------|
D|-0-0-0-0-0-0-0-0----/3-3-3-3-3-3-3-3----5-5-5-5-5-5-5-5----5-5-5-5-5-5-5-5-5-5-5-5-5-5-5-5----|
A|-0-0-0-0-0-0-0-0----/3-3-3-3-3-3-3-3----3-3-3-3-3-3-3-3----5-5-5-5-5-5-5-5-5-5-5-5-5-5-5-5----|
D|-0-0-0-0-0-0-0-0----/3-3-3-3-3-3-3-3-----------------------5-5-5-5-5-5-5-5-5-5-5-5-5-5-5-5----|


[Bridge]   AMAZING BRIDGE! 

e|----------------------------------------------------------------------------------------------|
B|----------------------------------------------------------------------------------------------|
G|----------------------------------------------------------------------------------------------|
D|--0-0r----/6-\5--0--/3----0-0r----/6-\5--0--/3----0-0r----/6-\5--0--/3---3--3-3--/7--7-7------|
A|--0-0r----/6-\5--0--/3----0-0r----/6-\5--0--/3----0-0r----/6-\5--0--/3---3--3-3--/7--7-7------|
D|--0-0r----/6-\5--0--/3----0-0r----/6-\5--0--/3----0-0r----/6-\5--0--/3---3--3-3--/7--7-7------|

e|----------------------------------------------------------------------------------------------|
B|----------------------------------------------------------------------------------------------|
G|----------------------------------------------------------------------------------------------|
D|--0-0r----/6-\5--0--/3-----0-0r---/6-\5--0--/3-----0-0r---/6-\5--0--/3---3--3-3--/7--7-7---0--|
A|--0-0r----/6-\5--0--/3-----0-0r---/6-\5--0--/3-----0-0r---/6-\5--0--/3---3--3-3--/7--7-7---0--|
D|--0-0r----/6-\5--0--/3-----0-0r---/6-\5--0--/3-----0-0r---/6-\5--0--/3---3--3-3--/7--7-7---0--|

Dm   F   C   Gm   (Piano Chords)


[Piano Interlude - Prechorus 3]

            Dm
We have the passion
       F
of the unbroken
        C
And our souls we
         Gm
will not sell You
    Dm
can beat us down
            F
but when we come
             C
around We'll damn
           Gm  
you all to hell


[Refrain 3]

 Dm (hold)
Let me see you hold
up your salute to
the sky While you
sing it out bleeding
out your lungs
until you die


[Chorus 3]  lead solo theme in background

e|------------------------------------------------------------------------------|
B|------------------------------------------------------------------------------|
G|----------------------------------------5-5-5-5-5-5-5-5-----------------------|
D|-0-0-0-0-0-0-0-0----/3-3-3-3-3-3-3-3----5-5-5-5-5-5-5-5----5-5-5-5-5-5-5-5----|
A|-0-0-0-0-0-0-0-0----/3-3-3-3-3-3-3-3----3-3-3-3-3-3-3-3----5-5-5-5-5-5-5-5----|
D|-0-0-0-0-0-0-0-0----/3-3-3-3-3-3-3-3-----------------------5-5-5-5-5-5-5-5----|

e|------------------------------------------------------------------------------|
B|------------------------------------------------------------------------------|
G|----------------------------------------5-5-5-5-5-5-5-5-----------------------|
D|-0-0-0-0-0-0-0-0----/3-3-3-3-3-3-3-3----5-5-5-5-5-5-5-5----5-5-5-5-5-5-5-5----|
A|-0-0-0-0-0-0-0-0----/3-3-3-3-3-3-3-3----3-3-3-3-3-3-3-3----5-5-5-5-5-5-5-5----|
D|-0-0-0-0-0-0-0-0----/3-3-3-3-3-3-3-3-----------------------5-5-5-5-5-5-5-5----|

[Outro Chorus]   Deryck with metallic voice

e|------------------------------------------------------------------------------|
B|------------------------------------------------------------------------------|
G|----------------------------------------5-5-5-5-5-5-5-5-----------------------|
D|-0-0-0-0-0-0-0-0----/3-3-3-3-3-3-3-3----5-5-5-5-5-5-5-5----5-5-5-5-5-5-5-5----|
A|-0-0-0-0-0-0-0-0----/3-3-3-3-3-3-3-3----3-3-3-3-3-3-3-3----5-5-5-5-5-5-5-5----|
D|-0-0-0-0-0-0-0-0----/3-3-3-3-3-3-3-3-----------------------5-5-5-5-5-5-5-5----|
                                                           stopped chords 
e|------------------------------------------------------------------------------|
B|------------------------------------------------------------------------------|
G|----------------------------------------5-5-5-5-5-5-5-5-----------------------|
D|-0-0-0-0-0-0-0-0----/3-3-3-3-3-3-3-3----5-5-5-5-5-5-5-5----5-5r---5-5r----0---|
A|-0-0-0-0-0-0-0-0----/3-3-3-3-3-3-3-3----3-3-3-3-3-3-3-3----5-5r---5-5r----0---|
D|-0-0-0-0-0-0-0-0----/3-3-3-3-3-3-3-3-----------------------5-5r---5-5r----0---|


[Ending melody in Dm]

************************************

Effects Legend:

| x   Dead note
| g   Grace note
| (n) Ghost note
| h   Hammer-on
| p   Pull-off
| r   Release
| >   Accented note
| t   Tapping
| b   Bend
| br  Bend release
| pb  Pre-bend
| pbr Pre-bend release
| /   Slide up
| \   Slide down
| ~   Vibrato
| s   Slap
| P   Pop
| PM  Palm mute
| TR  Trill
| N   Tremolo

************************************




Suggest correction
comments
print report bad tab
2 comments total.
-1 reply
The Sum 12 Oct 01, 2016 12:58 AM

Such a great job man, congrats and thanks!

On the brigde is a chord missing, i guess!
0-0---6-5--0--3---0-0
0-0---6-5--0--3---0-0 ....
0-0---6-5--0--3---0-0

+1 reply
Bobby94685 233 Oct 01, 2016 06:50 AM

Thanks! Corrected. You're right. Enjoy the song and tab!

guest
You may want to rate the tab now too:
select rating
Wanna post a correction for this tab? Suggest correction