Oops, an error
Loading. Please wait.

God Save Us All Death To Pop Tab

version 2
version 2

Whole song

286 views 3 this week
no commentswrite comment
1 2 3 4 5
x 3
add to favorites
launch autoscroll
font size
0
reset
how to read this tab
guitar tuner
Autoscroll
slow
fast
+/-
esc
set tempo
stop
Help us to improve Ultimate-Guitar.com Take our survey!
×
Author
Tuning
D A D G B E
[Intro] (lead)

e|------------------------------------------------------------------------------------------|
B|15-15-------15-15-------13-13-------13-13------13-13-------13-13------13--15---17----18---| (2x)
G|------14-14-------14-14-------14-14------14-14-------12-12------12-12---14---14---14---14-|
D|------------------------------------------------------------------------------------------|
A|------------------------------------------------------------------------------------------|
E|------------------------------------------------------------------------------------------|

e|--end-on-------------------------------------------------------------------|
B|--15-----------------------------------------------------------------------|
G|---------------------------------------------------------------------------|
D|---------------------------------------------------------------------------|
A|---------------------------------------------------------------------------|
E|---------------------------------------------------------------------------|

Intro (rhyhtm)

e|---------------------------------------------------------------------------|
B|---------------------------------------------------------------------------|
G|---------------5----------------------------7------------------------------|
D|-0-(8x)-3------5-(8x)-5--------------end-on-7------------------------------|
A|-0------3-(8x)-3------5-(8x)--(2x)----------5------------------------------|
E|-0------3-------------5----------------------------------------------------|


verse (both guitars)

e|---------------------------------------------------------------------------|
B|---------------------------------------------------------------------------|
G|xxxxxxx-7-------------5----------------------------------------------------|
D|xxxxxxx-7-(8x)-3------5-(8x)-5---------------------------------------------|
A|xxxxxxx-5------3-(8x)-3------5-(8x)--(2x)----------------------------------|
E|xxxxxxx--------3-------------5---------------------------------------------|

e|---------------------------------------------------------------------------|
B|---------------------------------------------------------------------------|
G|-7------10------5----------------------------------------------------------|
D|-7-(8x)-10------5-(8x)-5---------------------------------------------------|
A|-5------8--(8x)-3------5-(8x)--(1x)----------------------------------------|
E|-----------------------5---------------------------------------------------|




pre chorus (both guitars)

e|---------------------------------------------------------------------------|
B|---------------------------------------------------------------------------|
G|-3-------5-------7----------------------------------------------------------|
D|-3-(16x)-5-(16x)-7----------------------------------------------------------|
A|-1-------3-------5----------------------------------------------------------|
E|---------------------------------------------------------------------------|

chorus (lead)

e|------------------------------------------------------------------------------------------|
B|15-15-------15-15-------13-13-------13-13------13-13-------13-13------13--15---17----18---| (2x)
G|------14-14-------14-14-------14-14------14-14-------12-12------12-12---14---14---14---14-|
D|------------------------------------------------------------------------------------------|
A|------------------------------------------------------------------------------------------|
E|------------------------------------------------------------------------------------------|

last time
e|---------------------------------------------------------------------------|
B|--13----15----17----18----15-----------------------------------------------|
G|-----14----14----14----14--------------------------------------------------|
D|---------------------------------------------------------------------------|
A|---------------------------------------------------------------------------|
E|---------------------------------------------------------------------------|

Chorus (rhythm)
e|---------------------------------------------------------------------------|
B|---------------------------------------------------------------------------|
G|---------------5-----------------------------------------------------------|
D|-0-(8x)-3------5-(8x)-5-------------5-------0------------------------------|
A|-0------3-(8x)-3------5-(8x)--(2x)--5-(8x)--0------------------------------|
E|-0------3-------------5-------------5-------0------------------------------|

Bridge (both guitars)

e|---------------------------------------------------------------------------|
B|-------play-2x)------------------------------------------------------------|
G|---------------------------------------------------------------------------|
D|---00-6-5-3-0-------3333-7777------0---------------------------------------|
A|---00-6-5-3-0-(3x)--3333-7777------0---------------------------------------|
E|---00-6-5-3-0-------3333-7777------0---------------------------------------|
 
Outro (lead)

e|------------------------------------------------------------------------------------------|
B|15-15-------15-15-------13-13-------13-13------13-13-------13-13------13--15---17----18---| (1x)
G|------14-14-------14-14-------14-14------14-14-------12-12------12-12---14---14---14---14-|
D|------------------------------------------------------------------------------------------|
A|------------------------------------------------------------------------------------------|
E|------------------------------------------------------------------------------------------|

e|------------------------------------------------------------------------------------------|
B|15-15-------15-15-------13-13-------13-13------13-13-------13-13------1313-1313-15--------| (1x)
G|------14-14-------14-14-------14-14------14-14-------12-12------12-12---------------------|
D|------------------------------------------------------------------------------------------|
A|------------------------------------------------------------------------------------------|
E|------------------------------------------------------------------------------------------|



Outro (rhythm)
e|---------------------------------------------------------------------------|
B|---------------------------------------------------------------------------|
G|---------------5-----------------------------------------------------------|
D|-0-(8x)-3------5-(8x)-5----------------------------------------------------|
A|-0------3-(8x)-3------5-(8x)--(1x)-----------------------------------------|
E|-0------3-------------5----------------------------------------------------|

e|---------------------------------------------------------------------------|
B|---------------------------------------------------------------------------|
G|---------------5-----------------------------------------------------------|
D|-0-(8x)-3------5-(8x)-55-55-0----------------------------------------------|
A|-0------3-(8x)-3------55-55-0----------------------------------------------|
E|-0------3-------------55-55-0----------------------------------------------|




************************************

| x   Dead note
| g   Grace note
| (n) Ghost note
| h   Hammer-on
| p   Pull-off
| r   Release
| >   Accented note
| t   Tapping
| b   Bend
| br  Bend release
| pb  Pre-bend
| pbr Pre-bend release
| /   Slide up
| \   Slide down
| ~   Vibrato
| s   Slap
| P   Pop
| PM  Palm mute
| TR  Trill
| N   Tremolo

************************************
Suggest correction
Give kudos to tab author, rate the tab!
1 2 3 4 5
comments
print report bad tab
guest
You may want to rate the tab now too:
select rating
Wanna post a correction for this tab? Suggest correction