Oops, an error
Loading. Please wait.
We have an official Goddamn Im Dead Again tab made by UG professional guitarists. Check out the tab »
×

Goddamn Im Dead Again Tab

version 1
version 1

Whole song

  • I have tabbed Sum 41's Goddamn I'm Dead Again in i... Show more

Interactive

1,960 views 24 this week
3 commentsread comments
1 2 3 4 5
x 3
add to favorites
launch autoscroll
font size
0
reset
how to read this tab
guitar tuner
×
Best way to learn
"Goddamn Im Dead Again"
Autoscroll
slow
fast
+/-
esc
set tempo
stop
Author
Difficulty
Tuning
  follow
novice
D G C F A D
[Intro]
e|---------------------------------------------------------------------------|
B|---------------------------------------------------------------------------|
G|---------------------------------------------------------------------------|
D|---------------------------------------------------------------------------| FOUR TIMES
A|---------------------------------------------------------------------------|
D|-0-0-0-0--5-5-5--3-3-3--6-6-6-6--8-8-8-8-----------------------------------|

[Verse]

e|-----------------------------------------------------------------------------------|
B|-----------------------------------------------------------------------------------|
G|-5-5--7-7--5-5--7-7--5-5--7-7-----3-3-3-3-3-3-3-3--5-5-5-5-5-5-5-5-----------------|
D|-5-5--7-7--5-5--7-7--5-5--7-7-----3-3-3-3-3-3-3-3--5-5-5-5-5-5-5-5-----------------|
A|-3-3--5-5--3-3--5-5--3-3--5-5-----1-1-1-1-1-1-1-1--3-3-3-3-3-3-3-3-----------------|
D|--------------------------------------------------------------------0-2h3-8-6------|

( I need help on that tiny riff which I'm stuck right now)
e|-----------------------------------------------------------------------------------|
B|-----------------------------------------------------------------------------------|
G|-5-5--7-7--5-5--7-7--5-5--7-7-----3-3-3-3-3-3-3-3--5-5-5-5-5-5-5-5-----------------|
D|-5-5--7-7--5-5--7-7--5-5--7-7-----3-3-3-3-3-3-3-3--5-5-5-5-5-5-5-5-----------------|
A|-3-3--5-5--3-3--5-5--3-3--5-5-----1-1-1-1-1-1-1-1--3-3-3-3-3-3-3-3-----------------|
D|-----------------------------------------------------------------------------------|


[Chorus]
e|---------------------------------------------------------------------------|
B|---------------------------------------------------------------------------|
G|-7-7-7-7-7-7--3-3-3-3-3-3--10-10-10-10-10-10-10-10-10-5-5-5-5-5-5-5-5------|
D|-7-7-7-7-7-7--3-3-3-3-3-3--10-10-10-10-10-10-10-10-10-5-5-5-5-5-5-5-5------| 
A|-5-5-5-5-5-5--1-1-1-1-1-1--8--8--8--8--8--8--8--8--8--3-3-3-3-3-3-3-3------|
D|---------------------------------------------------------------------------|

Break
e|---------------------------------------------------------------------------|
B|---------------------------------------------------------------------------|
G|-4-4----7------------------------------------------------------------------|
D|-4-4----7------------------------------------------------------------------|
A|-2-2----5------------------------------------------------------------------|
D|---------------------------------------------------------------------------|

I can't play the solo and the outro that sounds like hotel california that dave baksh and brown tom is playing
so help me!

Thanks
************************************

| x   Dead note
| g   Grace note
| (n) Ghost note
| h   Hammer-on
| p   Pull-off
| r   Release
| >   Accented note
| t   Tapping
| b   Bend
| br  Bend release
| pb  Pre-bend
| pbr Pre-bend release
| /   Slide up
| \   Slide down
| ~   Vibrato
| s   Slap
| P   Pop
| PM  Palm mute
| TR  Trill
| N   Tremolo

************************************
Suggest correction
Give kudos to tab author, rate the tab!
1 2 3 4 5
comments
print report bad tab
3 comments total.
0 reply
jeeyeef 16 Oct 10, 2016 09:42 AM

I think the intro is 0-5-3-8-10 (instead of -6-8) and it's drop c tuning

guest
You may want to rate the tab now too:
select rating
Wanna post a correction for this tab? Suggest correction