Oops, an error
Loading. Please wait.
We have an official Goddamn Im Dead Again tab made by UG professional guitarists. Check out the tab »
×

Goddamn Im Dead Again Tab

version 1
version 1

Whole song

  • I have tabbed Sum 41's Goddamn I'm Dead Again in i... Show more

Interactive

by Sum 41
2,182 views 42 this week
3 commentsread comments
1 2 3 4 5
x 3
add to favorites
launch autoscroll
font size
0
reset
how to read this tab
guitar tuner
Autoscroll
slow
fast
+/-
esc
set tempo
stop
Author
Difficulty
Tuning
novice
C G C F A D
[Intro]
D|-----------------|-----------------|-----------------|-------------------------|
A|-----------------|-----------------|-----------------|-------------------------|
F|-----------------|-----------------|-----------------|-------------------------|
C|-----------------|-----------------|-----------------|-------------------------| FOUR TIMES
G|-----------------|-----------------|-----------------|-------------------------|
C|-0-0-0-0-0-0-0-0-|-5-5-5-5-3-3-3-3-|-8-8-8-8-8-8-8-8-|-10-10-10-10-10-10-10-10-|

[Verse]

D|-----------------------------------------------------------------------------------|
A|-----------------------------------------------------------------------------------|
F|-5-5--7-7--5-5--7-7--5-5--7-7-----3-3-3-3-3-3-3-3--5-5-5-5-5-5-5-5-----------------|
C|-5-5--7-7--5-5--7-7--5-5--7-7-----3-3-3-3-3-3-3-3--5-5-5-5-5-5-5-5-----------------|
G|-3-3--5-5--3-3--5-5--3-3--5-5-----1-1-1-1-1-1-1-1--3-3-3-3-3-3-3-3-----------------|
C|--------------------------------------------------------------------0-2h3-8-6------|

(I need help on that tiny riff which I'm stuck right now)
D|-----------------------------------------------------------------------------------|
A|-----------------------------------------------------------------------------------|
F|-5-5--7-7--5-5--7-7--5-5--7-7-----3-3-3-3-3-3-3-3--5-5-5-5-5-5-5-5-----------------|
C|-5-5--7-7--5-5--7-7--5-5--7-7-----3-3-3-3-3-3-3-3--5-5-5-5-5-5-5-5-----------------|
G|-3-3--5-5--3-3--5-5--3-3--5-5-----1-1-1-1-1-1-1-1--3-3-3-3-3-3-3-3-----------------|
C|-----------------------------------------------------------------------------------|

[Chorus]

D|---------------------------------------------------------------------------|
A|---------------------------------------------------------------------------|
F|-7-7-7-7-7-7--3-3-3-3-3-3--10-10-10-10-10-10-10-10-10-5-5-5-5-5-5-5-5------|
C|-7-7-7-7-7-7--3-3-3-3-3-3--10-10-10-10-10-10-10-10-10-5-5-5-5-5-5-5-5------| 
G|-5-5-5-5-5-5--1-1-1-1-1-1--8--8--8--8--8--8--8--8--8--3-3-3-3-3-3-3-3------|
C|---------------------------------------------------------------------------|

Break
D|---------------------------------------------------------------------------|
A|---------------------------------------------------------------------------|
F|-4-4----7------------------------------------------------------------------|
C|-4-4----7------------------------------------------------------------------|
G|-2-2----5------------------------------------------------------------------|
C|---------------------------------------------------------------------------|

I can't play the solo and the outro that sounds like hotel california that dave baksh and brown tom is playing
so help me!

Thanks

************************************

| h   Hammer-on

************************************
Suggest correction
Give kudos to tab author, rate the tab!
1 2 3 4 5
comments
print report bad tab
3 comments total.
0 reply
jeeyeef 16 Oct 10, 2016 09:42 AM

I think the intro is 0-5-3-8-10 (instead of -6-8) and it's drop c tuning

guest
You may want to rate the tab now too:
select rating
Wanna post a correction for this tab? Suggest correction